Primus - The Carpenter And The Dainty Bride Chords & Tabs

 

The Carpenter And The Dainty Bride Chords & Tabs

Primus Chords & Tabs

Version: 1 Type: Bass Tab 0 ratings
1 star 2 stars 3 stars 4 stars 5 stars
comments

The Carpenter And The Dainty Bride Bass Tab

   
Artist: Primus
Song: The Carpenter and the Dainty Bride
Album: Animals Should Not Try to Act Like People EP (2003)
Bassist: Les Claypool
Tuning: B-E-A-D-G-C
Notes: - Played on a fretless 6-string

 R - Right Hand Tap
 L - Left Hand Tap
 / - Slide Up
 \ - Slide Down


Intro: - With delay and some sort of distortion or compression 
C|-------------------------|
G|--9-------9---9-------9--|
D|----10-10-------10-10----|
A|-------------------------|
E|-------------------------|
B|-------------------------| (x8)

C|-----------------------------------------------------|
G|--9-------9---9-------9---9-------9--12-9-9-------9--|
D|----10-10-------10-10-------10-10-----------10-10----|
A|-----------------------------------------------------|
E|-----------------------------------------------------|
B|-----------------------------------------------------| (x4)

C|-----------------------------------------------------|
G|--9-------9\6/9-------9\6/9-------9--12-9-9-------9--|
D|----10-10-------10-10-------10-10-----------10-10----|
A|-----------------------------------------------------|
E|-----------------------------------------------------|
B|-----------------------------------------------------| (x2)

C|--------------------------------------------------------|
G|--9-------9\6/9-------9\6/9-------9--12-9-9-------9\6/--|
D|----10-10-------10-10-------10-10-----------10-10-------|
A|--------------------------------------------------------|
E|--------------------------------------------------------|
B|--------------------------------------------------------| (x3)

C|---------------------------17\\\\\\--|
G|--9-------9\6/9-------9\6/-----------|
D|----10-10-------10-10----------------|
A|-------------------------------------|
E|-------------------------------------|
B|-------------------------------------|



Verse 1: The mutes are up by the 10th fret
C|--x-x-x-x------x-x-x-x------x-x-x-x------xx--xx-------|
G|--x-x-x-x------x-x-x-x------x-x-x-x--------x---x------|
D|--------------------------------------------x---x-----|
A|------------------------------------------------------|
E|-----------------------2-------------------------3----|
B|----------2-2------------2----------2-2------------5--|
    R R R R L L  R R R R L L  R R R R L L  RRRRRRRRL L

C|--x-x-x-x------x-x-x-x------x-x-x-x------15x----------|
G|--x-x-x-x------x-x-x-x------x-x-x-x---------x---------|
D|---------------------------------------------x--------|
A|------------------------------------------------------|
E|-----------------------2------------------------3-----|
B|----------2-2------------2----------2-2-----------5\--|
    R R R R L L  R R R R L L  R R R R L L  RRRRR  L L

C|------10-------x-x-x-x------x-x-x-x-------x--xx-------|
G|------10-------x-x-x-x------x-x-x-x--------x----------|
D|-----------------------------------------x--x---------|
A|------------------------------------------------------|
E|-----------------------2-------------------------3----|
B|--2-------2-2------------2----------2-2------------5--|
    L R R R L L  R R R R L L  R R R R L L  RRRRRR  L L

C|------10-------x-x-x-x------x-x-x-x----------|
G|---------------x-x-x-x------x-x-x-x----------|
D|---------------------------------------------|
A|---------------------------------------------|
E|-----------------------2---------------------|
B|--2-------2-2------------2----------2-2-12\--|
    L R R R L L  R R R R L L  R R R R L L L


 Vocals Enter
C|--x-x-x-x------x-x-x-x------x-x-x-x------x-x-x-x------|
G|--x-x-x-x------x-x-x-x------x-x-x-x------x-x-x-x------|
D|------------------------------------------------------|
A|------------------------------------------------------|
E|------------------------------------------------------|
B|----------2-2----------2-2----------2-2----------2-2--|
    R R R R L L  R R R R L L  R R R R L L  R R R R L L

C|--x-x-x-x------x-x-x-x------x-x-x-x------x---------|
G|--x-x-x-x------x-x-x-x------x-x-x-x------x---------|
D|---------------------------------------------------|
A|---------------------------------------------------|
E|---------------------------------------------------|
B|----------2-2----------2-2----------2-2-------12\--|
    R R R R L L  R R R R L L  R R R R L L  R    L


 Guitar Enters
C|--x-x-x-x------xx--xx-------x-x-x-x------xx---------|
G|--x-x-x-x--------x---x------x-x-x-x--------x--------|
D|------------------x---x---------------------x-------|
A|----------------------------------------------------|
E|-----------------------2----------------------3-----|
B|----------2-2------------3----------2-2---------5\--|
    R R R R L L  RRRRRRRRL L  R R R R L L  RRRRRL L

C|--x-x-x-x------xx--xx-------x-x-x-x------xx--------|
G|--x-x-x-x--------x---x------x-x-x-x--------x-------|
D|------------------x---x---------------------x------|
A|---------------------------------------------------|
E|---------------------------------------------------|
B|----------2-2----------2-2----------2-2-----3//9\--|
    R R R R L L  RRRRRRRRL L  R R R R L L  RRRR  L
                                              L

  Vocals Enter
C|--x-x-x-x------x-x-x-x------x-x-x-x------x-x-x-x------|
G|--x-x-x-x------x-x-x-x------x-x-x-x------x-x-x-x------|
D|------------------------------------------------------|
A|------------------------------------------------------|
E|------------------------------------------------------|
B|----------2-2----------2-2----------2-2----------2-2--|
    R R R R L L  R R R R L L  R R R R L L  R R R R L L

C|--x-x-x-x------x-x-x-x------x-x-x-x------x-x-x-----|
G|--x-x-x-x------x-x-x-x------x-x-x-x------x-x-x-----|
D|---------------------------------------------------|
A|---------------------------------------------------|
E|---------------------------------------------------|
B|----------2-2----------2-2----------2-2--------9\--|
    R R R R L L  R R R R L L  R R R R L L  R R R L

  Guitar Enters
C|--x-x-x-x------xx--xx-------x-x-x-x------xx---------|
G|--x-x-x-x--------x---x------x-x-x-x--------x--------|
D|------------------x---x---------------------x-------|
A|----------------------------------------------------|
E|-----------------------2----------------------3-----|
B|----------2-2------------3----------2-2---------5\--|
    R R R R L L  RRRRRRRRL L  R R R R L L  RRRRRL L

C|--x-x-x-x------15x--15x-------x-x-x-x------xx--------|
G|--x-x-x-x---------x----x------x-x-x-x--------x-------|
D|-------------------x----x---------------------x------|
A|-----------------------------------------------------|
E|-------------------------2---------------------3-----|
B|----------2-2--------------3----------2-2--------5\--|
    R R R R L L  R RRRR RRRL L  R R R R L L  RRRRL L

C|------x-------x-x-x-x------x-x-x-x--------------|
G|------x-------x-x-x-x------x-x-x-x--------------|
D|------------------------------------------------|
A|------------------------------------------------|
E|----------------------2-------------------------|
B|--2-----2-2-------------3----------2-2--10/18\--|
    L   R L L   R R R R L L  R R R R L L  L  S


Break: Delay, Light Distortion, Compression
C|-----------------------------------------------------|
G|--9-------9---9-------9---9-------9--12-9-9-------9--|
D|----10-10-------10-10-------10-10-----------10-10----|
A|-----------------------------------------------------|
E|-----------------------------------------------------|
B|-----------------------------------------------------|
                              Some wierd fill \/\/\/\/
C|--------------------------------------------15----15\--|
G|--9-------9---9-------9---9-------9--12-9-9----16------|
D|----10-10-------10-10-------10-10----------------------|
A|-------------------------------------------------------|
E|-------------------------------------------------------|
B|-------------------------------------------------------|


Verse 2:
C|------------x-x-x-x------x-x-x-x-------x--xx--------|
G|----10------x-x-x-x------x-x-x-x--------x-----------|
D|--------------------------------------x--x----------|
A|----------------------------------------------------|
E|--------------------2-------------------------3-----|
B|--x---2-2-------------2----------2-2------------5\--|
        L L   R R R R L L  R R R R L L  RRRRRR  L L

C|------x-------x-x-x-x------x-x-x-x--------------------|
G|------x-------x-x-x-x------x-x-x-x------9-----9-------|
D|------------------------------------------------------|
A|------------------------------------------------------|
E|----------------------2-------------------3-3---------|
B|--2-------2-2-----------2----------2-2----------5\2\--|
    L R R R L L R R R R L L  R R R R L L  R L L R L 


  Vocals Enter
C|--x-x-x-x------x-x-x-x------x-x-x-x------x-x-x-x------|
G|--x-x-x-x------x-x-x-x------x-x-x-x------x-x-x-x------|
D|------------------------------------------------------|
A|------------------------------------------------------|
E|------------------------------------------------------|
B|----------2-2----------2-2----------2-2----------2-2--|
    R R R R L L  R R R R L L  R R R R L L  R R R R L L

C|--x-x-x-x------x-x-x-x------x-x-x-x------x-x-x-x-----|
G|--x-x-x-x------x-x-x-x------x-x-x-x------x-x-x-x-----|
D|-----------------------------------------------------|
A|-----------------------------------------------------|
E|-----------------------------------------------------|
B|----------2-2----------2-2----------2-2----------9\--|
    R R R R L L  R R R R L L  R R R R L L  R R R R L


  Guitar Enters
C|--x---x------x-x-x-x------x-x-x-x------15x--------|
G|--x---x------x-x-x-x------x-x-x-x---------x-------|
D|-------------------------------------------x------|
A|--------------------------------------------------|
E|---------------------2----------------------3-----|
B|--------2-2------------2----------2-2---------5\--|
    R   R L L  R R R R L L  R R R R L L  R RRRL L
[ Tab from: http://www.guitartabs.cc/tabs/p/primus/the_carpenter_and_the_dainty_bride_btab.html ]
C|------x------x-x-x-x------x-x-x-x------15x--------|
G|------x------x-x-x-x------x-x-x-x---------x-------|
D|-------------------------------------------x------|
A|--------------------------------------------------|
E|---------------------2----------------------3/7\--|
B|--2-----2-2------------2----------2-2-------------|
    R   R L L  R R R R L L  R R R R L L  R RRRL L


  Vocals Enter
C|--x-x-x-x------x-x-x-x------x-x-x-x------x-x-x-x------|
G|--x-x-x-x------x-x-x-x------x-x-x-x------x-x-x-x------|
D|------------------------------------------------------|
A|------------------------------------------------------|
E|------------------------------------------------------|
B|----------2-2----------2-2----------2-2----------2-2--| (x3)
    R R R R L L  R R R R L L  R R R R L L  R R R R L L

C|--x-x-x-x------x-x-x-x------x-x-x-x------x-x-x-x------|
G|--x-x-x-x------x-x-x-x------x-x-x-x------x-x-x-x------|
D|------------------------------------------------------|
A|------------------------------------------------------|
E|------------------------------------------------------|
B|----------2-2----------2-2----------2-2----------12\--|
    R R R R L L  R R R R L L  R R R R L L  R R R R L


  Guitar Enter
C|--x-x-x-x------x-x-x-x------x-x-x-x------15x--------|
G|--x-x-x-x------x-x-x-x------x-x-x-x---------x-------|
D|---------------------------------------------x------|
A|----------------------------------------------------|
E|-----------------------2----------------------3-----|
B|----------2-2------------2----------2-2---------5\--|
    R R R R L L  R R R R L L  R R R R L L  R RRRL L

C|------x------x-x-x-x------x-x-x-x------xx-------|
G|------x------x-x-x-x------x-x-x-x--------x------|
D|------------------------------------------x-----|
A|------------------------------------------------|
E|---------------------2---------------------3-3--|
B|--2-----2-2------------2----------2-2-----------|
    R   R L L  R R R R L L  R R R R L L  RRRRL L

C|------x------x-x-x-x------x-x-x-x------15x--------|
G|------x------x-x-x-x------x-x-x-x---------x-------|
D|-------------------------------------------x------|
A|--------------------------------------------------|
E|---------------------2----------------------3/8\--|
B|--2-----2-2------------2----------2-2-------------|
    R   R L L  R R R R L L  R R R R L L  R RRRL 
                     
    I can't tell what going on here \/\/\/
C|------x------x-x-x-x------x-x-x-x--------|
G|------x------x-x-x-x------x-x-x-x--------|
D|-----------------------------------------|
A|-----------------------------------------|
E|---------------------2-------------------|
B|--------2-2------------2-----------------|
        R L L  R R R R L L  R R R R 


Break: Delay, Light Distortion, Compression
C|-----------------------------------------------------|
G|--9-------9---9-------9---9-------9--12-9-9-------9--|
D|----10-10-------10-10-------10-10-----------10-10----|
A|-----------------------------------------------------|
E|-----------------------------------------------------|
B|-----------------------------------------------------|

C|--------------------------------------------------------|
G|--9-------9---9-------9---9-------9--12-9-9-------9\6/--|
D|----10-10-------10-10-------10-10-----------10-10-------|
A|--------------------------------------------------------|
E|--------------------------------------------------------|
B|--------------------------------------------------------|

C|--------------------------------------------------------|
G|--9-------9\6/9-------9\6/9-------9--12-9-9-------9\6/--|
D|----10-10-------10-10-------10-10-----------10-10-------|
A|--------------------------------------------------------|
E|--------------------------------------------------------|
B|--------------------------------------------------------|

C|---------------------------17\\\\\\--|
G|--9-------9\6/9-------9\6/-----------|
D|----10-10-------10-10----------------|
A|-------------------------------------|
E|-------------------------------------|
B|-------------------------------------|


Guitar Solo: 
C|--------------------------------------------------|
G|--------------------------------------------------|
D|--------------------------------------------------|
A|--------------------------------------------------|
E|--7--7-7---7-7-7--7-7-7--7--7-7---7-7--7-7-7---7--|
B|--------------------------------------------------|  (x2)
   

C|------------4/13-------------------------4/13-----------|
G|------------4/13-------------------------4/13-----------|
D|--------------------------------------------------------|
A|--------------------------------------------------------|
E|--7--7-7-----------7--7-7-7--7--7-7-7-----------7--7-7--|
B|---------0~---------------------------0~----------------| (x2)

  At this point Les doesn't really follow a set rythem on these slides,  Just do what 
  feel is right
C|----------------------------------------------------------------------------------|
G|----------------------------------------------------------------------------------|
D|----------------------------------------------------------------------------------|
A|----------------------------------------------------------------------------------|
E|--7--7-7-7--7-7\6-6-6\5-5-5\4-4-4/5-5/6-6/7-7-7-7--7-7-7-7\6-6\5-5\4-4/5/6/7-7-7--|
B|----------------------------------------------------------------------------------| (x6)


Verse:
C|--x-x-x-x------x-x-x-x------x-x-x-x------x-x-x-x------|
G|--x-x-x-x------x-x-x-x------x-x-x-x------x-x-x-x------|
D|------------------------------------------------------|
A|------------------------------------------------------|
E|------------------------------------------------------|
B|----------2-2----------2-2----------2-2----------2-2--| (x2)
    R R R R L L  R R R R L L  R R R R L L  R R R R L L

C|--x-x-x-x-x-x-x-x-x-x--|
G|--x-x-x-x-x-x-x-x-x-x--|
D|-----------------------|
A|-----------------------|
E|-----------------------|
B|-----------------------|
    R R R R R R R R R R 

 Vocals Enter

C|--x-x-x-x------x-x-x-x------x-x-x-x------x-x-x-x------|
G|--x-x-x-x------x-x-x-x------x-x-x-x------x-x-x-x------|
D|------------------------------------------------------|
A|------------------------------------------------------|
E|------------------------------------------------------|
B|----------2-2----------2-2----------2-2----------2-2--| (x3)
    R R R R L L  R R R R L L  R R R R L L  R R R R L L

C|--x-x-x-x------x-x-x-x------x-x-x-x------x-x------|
G|--x-x-x-x------x-x-x-x------x-x-x-x------x-x------|
D|--------------------------------------------------|
A|--------------------------------------------------|
E|--------------------------------------------------|
B|----------2-2----------2-2----------2-2------12\--|
    R R R R L L  R R R R L L  R R R R L L  R R L

C|--x-x-x-x------x-x-x-x------x-x-x-x------x-x-x-x------|
G|--x-x-x-x------x-x-x-x------x-x-x-x------x-x-x-x------|
D|------------------------------------------------------|
A|------------------------------------------------------|
E|------------------------------------------------------|
B|----------2-2----------4-2----------2-2----------4-2--|
    R R R R L L  R R R R L L  R R R R L L  R R R R L L

C|--x-x-x-x------x-x-x-x------x-x-x-x------x-x-x-x------|
G|--x-x-x-x------x-x-x-x------x-x-x-x------x-x-x-x------|
D|------------------------------------------------------|
A|------------------------------------------------------|
E|------------------------------------------------------|
B|----------2-2----------2-2----------2-2----------2-2--| (x2)
    R R R R L L  R R R R L L  R R R R L L  R R R R L L

C|--x-x-x-x------x-x-x-x------x-x-x-x------x-x-x-x-x-x--|
G|--x-x-x-x------x-x-x-x------x-x-x-x------x-x-x-x-x-x--|
D|------------------------------------------------------|
A|------------------------------------------------------|
E|------------------------------------------------------|
B|----------2-2----------2-2----------2-2---------------|
    R R R R L L  R R R R L L  R R R R L L  R R R R R R


Outro: Delay, Light Distortion, Compression
C|-----------------------------------------------------|
G|--9-------9---9-------9---9-------9--12-9-9-------9--|
D|----10-10-------10-10-------10-10-----------10-10----|
A|-----------------------------------------------------|
E|-----------------------------------------------------|
B|-----------------------------------------------------| (x2)

C|--------------------------------------------------------|
G|--9-------9\6/9-------9\6/9-------9--12-9-9-------9\6/--|
D|----10-10-------10-10-------10-10-----------10-10-------|
A|--------------------------------------------------------|
E|--------------------------------------------------------|
B|--------------------------------------------------------|

  Another type of distortion enters here

C|--------------------------------------------------------|
G|--9-------9\6/9-------9\6/9-------9--12-9-9-------9\6/--|
D|----10-10-------10-10-------10-10-----------10-10-------|
A|--------------------------------------------------------|
E|--------------------------------------------------------|
B|--------------------------------------------------------|

  The distortion intensifies here
  On live versions an envelope filter enters here as well

C|--------------------------------------------------------|
G|--9-------9\6/9-------9\6/9-------9--12-9-9-------9\6/--|
D|----10-10-------10-10-------10-10-----------10-10-------|
A|--------------------------------------------------------|
E|--------------------------------------------------------|
B|--------------------------------------------------------| (x3)

C|-------------------------17\\\\\\--x-------|
G|--9-------9\6/9-------9/-----------x-------|
D|----10-10-------10-10--------------9///~~--| <----
A|-----------------------------------9///~~--| <------ More emphasis on these notes
E|-----------------------------------0~~~~~--| <----
B|-----------------------------------0~~~~~--|
Comments