Primus - The Air Is Getting Slippery Chords & Tabs

 

The Air Is Getting Slippery Chords & Tabs

Primus Chords & Tabs

Version: 1 Type: Bass Tab 0 ratings
1 star 2 stars 3 stars 4 stars 5 stars
comments

The Air Is Getting Slippery Bass Tab

From: Primus8@aol.com
Music by Primus, Words by Les Claypool

__________________________________________________
--------------------------------------------------
"The Air Is Getting Slippery" from "Pork Soda"
__________________________________________________
--------------------------------------------------
Tabbed by Christopher Preston

	Played on a stand-up electric bass, and sometimes an acoustic stand
up.  I play It on an acoustic frettless bass guitar, and it sounds perfect.

Intro:
			
|-----------|----------------|
|-7-6-5-4-3-|*------4-------*|
|-----------|*-6-/6---234---*|
|-----------|----------------|

Chorus:
[ Tab from: http://www.guitartabs.cc/tabs/p/primus/the_air_is_getting_slippery_btab.html ]
|----------------------|
|-/8--4--6--4--3--4--3-|
|----------------------|
|----------------------|


__________________________________________________
--------------------------------------------------
"The Air Is Getting Slippery" from Woodstock '94
__________________________________________________
--------------------------------------------------
Tabbed by Christopher Preston

	At Woodstock '94, Les did it a little different...

Intro:
			
|-------------|
|*------4----*|
|*-X-/6------*|
|----------6--|

Chorus:

|----------------------|
|-/8--4--6--4--3--4--3-|
|----------------------|
|----------------------|



Comments