Primus - Temporary Phase Chords & Tabs

 

Temporary Phase Chords & Tabs

Primus Chords & Tabs

Version: 2 Type: Bass Tab 0 ratings
1 star 2 stars 3 stars 4 stars 5 stars
comments

Temporary Phase Bass Tab

From: Primus8@aol.com
Date: Sun, 25 Jun 1995 11:37:52 -0400
[ Tab from: http://www.guitartabs.cc/tabs/p/primus/temporary_phase_btab_ver_2.html ]
__________________________________________________
--------------------------------------------------
"Temporary Phase" from "Riddles Are Abound Tonight"
__________________________________________________
--------------------------------------------------
Tabbed By Christopher Preston

|---3----------|
|---3----------|
|--------------|
|-3---3-X-6-5h-|

               Repeat X times for the whole song
|---5----------|
|---5----------|
|--------------|
|-3---3-X-1-2h-|
Comments