Primus - Southbound Pachyderm Chords & Tabs

 

Southbound Pachyderm Chords & Tabs

Primus Chords & Tabs

Version: 1 Type: Bass Tab 1 rating
1 star 2 stars 3 stars 4 stars 5 stars
comments

Southbound Pachyderm Bass Tab

__________________________________________________
--------------------------------------------------
"Southbound Pachyderm" from the album "Tales From the Punchbowl"
__________________________________________________
--------------------------------------------------
Tabbed by Christopher Preston

|--------------------------------|
|7--9---10-----------------------|
|00000000000000000000000000000000|
|--------------------------------|

				   3X
|----------------------------------|
|*--------------------------------*|
|*00000000000000000000000000000000*|
|----------------------------------|


|--------------------------------|
|7--9---10---9-10h--5--7---------|
|00000000000000000000000000000000|
|--------------------------------|


|--------------------------------|
|--------------------------------|
|00000000000000000000000000000000|
|--------------------------------|


|--------------------------------|
|7--9---10-----------------------|
|00000000000000000000000000000000|
|--------------------------------|


|--------------------------------|
|--------------------------------|
|00000000000000000000000000000000|
|--------------------------------|


|--17----------------------------|
|--17----------------------------|
|00000000000000000000000000000000|
|--------------------------------|


|--------------------------------|
|--------------------------------|
|00000000000000000000000000000000|
|--------------------------------|


|16--12/13--14-------------------|
|--------------------------------|
|00000000000000000000000000000000|
|--------------------------------|


|14-14-14-14/15/16---------------|
|14-14-14-14/15/16---------------|
|00000000000000000000000000000000|
|--------------------------------|


|--------------------------------|
|--------------------------------|
|00000000000000000000000000000000|
|--------------------------------|


|--------------------------------|
|7--9---10-----------------------|
|00000000000000000000000000000000|
|--------------------------------|


|--------------------------------|
|--------------------------------|
|00000000000000000000000000000000|
|--------------------------------|


|--------------------------------|
|7--9---10---9-10h--5--7---------|
|00000000000000000000000000000000|
|--------------------------------|


|--------------------------------|
|--------------------------------|
|00000000000000000000000000000000|
|--------------------------------|


|--17----------------------------|
|--17----------------------------|
|00000000000000000000000000000000|
|--------------------------------|


|--------------------------------|
|--------------------------------|
|00000000000000000000000000000000|
|--------------------------------|


|16--12/13--14-------------------|
|--------------------------------|
|00000000000000000000000000000000|
|--------------------------------|


|14-14-14-14/15/16---------------|
|14-14-14-14/15/16---------------|
|00000000000000000000000000000000|
|--------------------------------|


|--------------------------------|
|--------------------------------|
|00000000000000000000000000000000|
|--------------------------------|

[ Tab from: http://www.guitartabs.cc/tabs/p/primus/southbound_pachyderm_btab.html ]
|14-14-14-14/15/16---------------|
|14-14-14-14/15/16---------------|
|00000000000000000000000000000000|
|--------------------------------|


|--------------------------------|
|--------------------------------|
|00000000000000000000000000000000|
|--------------------------------|


|--------------------------------|
|--------------------------------|
|00000000000000000000000000000000|
|--------------------------------|


|--------------------------------|
|7--9---10-----------------------|
|00000000000000000000000000000000|
|--------------------------------|


|--------------------------------|
|--------------------------------|
|00000000000000000000000000000000|
|--------------------------------|


|--------------------------------|
|7--9---10---9-10h--5--7---------|
|00000000000000000000000000000000|
|--------------------------------|


|--------------------------------|
|--------------------------------|
|00000000000000000000000000000000|
|--------------------------------|


|--------------------------------|
|7--9---10-----------------------|
|00000000000000000000000000000000|
|--------------------------------|


|--------------------------------|
|--------------------------------|
|00000000000000000000000000000000|
|--------------------------------|


|--------------------------------|
|--------------------------------|
|00000000000000000000000000000000|
|--------------------------------|


|--19----------------------------|
|--19----------------------------|
|00000000000000000000000000000000|
|--------------------------------|


|16--12/13--14-------------------|
|--------------------------------|
|00000000000000000000000000000000|
|--------------------------------|


|14-14-14-14/15/16---------------|
|14-14-14-14/15/16---------------|
|00000000000000000000000000000000|
|--------------------------------|


			   3X
|----------------------------------|
|*--------------------------------*|
|*00000000000000000000000000000000*|
|----------------------------------|


|----------------------------------|
|*10--9--7--5-5--6-6--7-----------*|
|*00000000000000000000000000000000*|
|----------------------------------|


|--------------------------------|
|10-9-10-12-10-12-14-------------|
|00000000000000000000000000000000|
|--------------------------------|


|--------------------------------|
|--------------------------------|
|00000000000000000000000000000000|
|--------------------------------|


|--19----------------------------|
|--19----------------------------|
|00000000000000000000000000000000|
|--------------------------------|


|16--12/13--14-------------------|
|--------------------------------|
|00000000000000000000000000000000|
|--------------------------------|


|14-14-14-14/15/16---------------|
|14-14-14-14/15/16---------------|
|00000000000000000000000000000000|
|--------------------------------|

Verse:
				X times
|--------------------------------|
|--------------------------------|
|00000000000000000000000000000000|
|--------------------------------|


Chorus:

|14-14-14-14/15/16---------------|
|14-14-14-14/15/16---------------|
|00000000000000000000000000000000|
|--------------------------------|

				X times
|--------------------------------|
|--------------------------------|
|00000000000000000000000000000000|
|--------------------------------|


Comments