Primus - Shake Hands With Beef Chords & Tabs

 

Shake Hands With Beef Chords & Tabs

Primus Chords & Tabs

Version: 1 Type: Bass Tab 0 ratings
1 star 2 stars 3 stars 4 stars 5 stars
comments

Shake Hands With Beef Bass Tab

song: shake hands with beef
band:primus
album: brown album
tabber: wiggins-uwfbpssbk@hotmail.com

les uses a 6-string but i transcribed it on a five all u need is the b for 
this song
slap all these parts except for the chords
[ Tab from: http://www.guitartabs.cc/tabs/p/primus/shake_hands_with_beef_btab.html ]
G-------------------------------
D-------------------------------
A-------------------------------
E-5-----------------5-----------
B7-0-h7-p0-h5-7-7-7--0-h7-p0-h5-

thats basically the riff of the song
however for the chorus type thingy 'she's fine...' it goes

G10--9----------9--8----------7-------
D10--9----------9--8----------7-------
A8---7----------7--6----------5-------
E-------------------------------------
B-----0-h7-p0-h5----0-h7-p0-h5--------

any correction email me
wiggins, the first

Comments