Primus - Sgt Baker Chords & Tabs

 

Sgt Baker Chords & Tabs

Primus Chords & Tabs

Version: 3 Type: Bass Tab

Sgt Baker Bass Tab

----------------------------------------------------------------------------
			     Sgt. Baker - Primus
----------------------------------------------------------------------------

Tabbed by: Violence4fun
e-mail:whyka@tlen.pl

if you find any mistakes or have suggestions mail me.


INTRO
                                     4x
G||-------------------------|----------||
D||------3------------------|---2------||
A||--------3-2-1-0----------|-----3----||
E||--0-0-----------0-3-2-1/-|-0-----2--||


Interlude (or however you call it :P)

                3x  
G||---------------||-----------9-\10-|
D||---------7-----||-----------9-\10-|
A||-------6---9---||-----6-----------|
E||---5-7---------||-5-7-------------|

[ Tab from: http://www.guitartabs.cc/tabs/p/primus/sgt_baker_btab_ver_3.html ]
Main riff
					  2x
G||---------------9-\10-|-------------------||
D||---------7-----9-\10-|--------7----------||
A||-------6---9-7-------|------6---9--------||
E||--5-7----------------|--5-7-------0-1-0--||


Most of the song Les plays it that way:

G|-----------9-\10-|
D|-------7---9-\10-|
A|-----6---9-------|
E|-5-7-------------|


So called "dum dum" riff :)

G|----------------|
D|----------------|
A|-----6----------|
E|-5-7---3-2-0----|



"One, two, three..."
I'm not quite sure about this part but it sounds cool


                2x              4x
G||---2------------||-||-----------||----|
D||---2------------||-||-----------||----|
A||-----0-3-2-0-0--||-||-----------||----|
E||----------------||-||--0-0-3-4--||----|


There are of course some riffs that Les improvise(?) but i had no patience to transcript it.
Listen to the song to hear the duration of notes.