Primus - Sgt Baker Chords & Tabs

 

Sgt Baker Chords & Tabs

Primus Chords & Tabs

Version: 2 Type: Bass Tab

Sgt Baker Bass Tab

Tabbed By : Tyler
e-mail: Tyrosenberg10@msn.com
Tuning: Standard

Ok this song is extremelly cool really fun to sing and play at the same time
once you get the hang of it les claypool is a bass genius.

Intro  (Play 2x)
                                                      p
G|--------------------------------------------------------------------------|
D|---------2-----------------------------------2----------------------------|
A|------------3--2--1-----------------------------3-------------------------|
E|--0--0---------------0--3--0-3-2-1/--------0--------1---------------------|
[ Tab from: http://www.guitartabs.cc/tabs/p/primus/sgt_baker_btab_ver_2.html ]
                                                      p
G|--------------------------------------------------------------------------|
D|---------2-----------------------------------2----------------------------|
A|------------3--2--1-----------------------------3-------------------------|
E|-----0---------------0--3--0-3-2-1/-----0--0--------2---------------------|


Verse                                      Dun Dun Dun
     t   t   p      ^  ^  ^                   t t t
G|------------------9--10-11---          G|-----------|
D|-----------7p4----7--8--9----          D|-----------|
A|-------6----------7--8--9----          A|-----------|
E|---2/------------------------          E|---5-4-3---|


Interlude
     t  t t t t t              t t  t t t
G|------------------     G|------------------|
D|------------------     D|------------------|
A|------------------     A|------------------|
E|---5--5-8-7-5-5---     E|----0-0--0-2-3----|


OK this is the part where u hear those one bass note by them selves kinda a mini solo

     t  t t t t t    t    t  t t t t t    t
G|----------------------------------------------|
D|----------------------------------------------|
A|----------------------------------------------|
E|---5--5-8-7-5-5----3----5--5-8-7-5-5----2-----|