Primus - Professor Nutbutter Chords & Tabs

 

Professor Nutbutter Chords & Tabs

Primus Chords & Tabs

Version: 2 Type: Bass Tab 0 ratings
1 star 2 stars 3 stars 4 stars 5 stars
comments

Professor Nutbutter Bass Tab

   
Tabbed and posted by T@AST. I found this out myself so I think it's right.
ON BASS THAT IS. ENJOY WITH SOME PORK SODA.
G-------------------14---------------------
D--XXXXXXXXXXXXXXXX/14-XXXXX---------------
A------------------------------------------
E------------------------------------------
THAT'S BEGINING STUFF, NOW LES STARTS UP
G-77777-7/9/7-77777--/14-77777
D-00000-0---0-00000--/14-00000
A-----------------------------
E-----------------------------
NOW THE COOL PART (I'M THINKING OF THIS OFF THE TOP OF MY HEAD SO YOU MAY
WANT TO CHECK FOR YOUR SELF) TRY SLAP BASS
G---------18-16-18---------18-16-18---------18-16-18-7777
D-0-14-16----------0-14-16----------0-14-16----------0000
A--------------------------------------------------------
E--------------------------------------------------------
VERSE USE DISTORTION FOR MAXIMUM COOLNESS
G------------------------------------------------------
D-1-1-0-0-1-1-1---1-1-0-0-1-1-2---1-1-0-0-1-1-1-0-0-0-0
A------------------------------------------------------
E------------------------------------------------------
CHORUS
G--------------------------
D--------------------------
A-6666666-44444444-5555555-
E--------------------------
INTERLUDE (ANOTHER ONE I'M THINKING OF OFF THE TOP OF MY HEAD)
G-------
D---77--
A-55--33
E-------
AND YOU ARE DONE. I HAVE NOTHING ELSE TO SAY.





[ Tab from: http://www.guitartabs.cc/tabs/p/primus/professor_nutbutter_btab_ver_2.html ]
Comments