Primus - Over The Falls Chords & Tabs

 

Over The Falls Chords & Tabs

Primus Chords & Tabs

Version: 2 Type: Bass Tab 0 ratings
1 star 2 stars 3 stars 4 stars 5 stars
comments

Over The Falls Bass Tab

here it is, saved as .txt

download and enjoy

Neal
===================
"Over the Falls" from the Brown Album
===================
by primus
Tabbed by: Neal Conway	
-damnsaxon@aol.com-


Verse (main part):
G------------------|
D---2------2-------|
A------------------|
E-0---3--0---3-----|



As he stood by and waited to be called....
[ Tab from: http://www.guitartabs.cc/tabs/p/primus/over_the_falls_btab_ver_2.html ]
G-------------------------------------------------------------------- |
D----------------2-----2--------------------------------------------- |
A--0-0-0-3-3-3-------------0-0-0-3-3-3-2-2-2-1-1-1-0-1-0------------- |
E--------------0---3-0---3-------------------------------3-2-00------ |


other part

G-------------------------------------------------------------- |
D-2-2-2-2-2-2-2-2-2-2-0---0--2-2-2-2-0---0--------------------- |
A-----------------------2--------------2---2-0---0------------- |
E----------------------------------------------2---2-2-2-0----- |


no wierd tunings. just play with the cd and it should be easy 
Comments