Primus - Over The Electric Grapevine Chords & Tabs

 

Over The Electric Grapevine Chords & Tabs

Primus Chords & Tabs

Version: 2 Type: Bass Tab 0 ratings
1 star 2 stars 3 stars 4 stars 5 stars
comments

Over The Electric Grapevine Bass Tab

#----------------------------------PLEASE NOTE---------------------------------#
#This file is the author's own work and represents their interpretation of the #
#song. You may only use this file for private study, scholarship, or research. #
#------------------------------------------------------------------------------##
From: BRAINCLOG@aol.com
Date: Tue, 20 Jun 1995 19:41:42 -0400
Subject: Primus:Over the elec. grapevine

here's the intro to Over The Electric Grapevine....(on a fretless bass) i'll
try to post the rest later.............
[ Tab from: http://www.guitartabs.cc/tabs/p/primus/over_the_electric_grapevine_btab_ver_2.html ]
G---------------------------------------------------------------------14--16--
16-16-16\17
D------------------------12---------12--14--14\16--14--16---------------------
---------
A--12--14--12--14---------14--------------------------------------------------
------------
E-----------------------------------------------------------------------------
-------------------

G--19--17--16\17/16----------------------------------------------------------
D---------------------------19--16--------------------------------------------
----
A--------------------------------------19\17--17--17\19--17-----------------
E-----------------------------------------------------------------------17--17
\19
 
Now you need a five string for the low B

G--------------
D--4-----------
A---------------
E------2--------
B-----------0--
Comments