Primus - Nib Chords & Tabs

 

Nib Chords & Tabs

Primus Chords & Tabs

Version: 1 Type: Tab 0 ratings
1 star 2 stars 3 stars 4 stars 5 stars
comments

Nib Tab

Artist: Primus
Song:N.I.B.
Tabbed by: Brian Morgan
E-mail:mapleskata_04@aol.com


  this song is really easy it just goes like this through the entire song.
Primus re-did it for black sabbath.

[ Tab from: http://www.guitartabs.cc/tabs/p/primus/nib_tab.html ]
   her we go!                    :fast:
                                   |
     e:---------------------------------------------------------------]
     b:---------------------------------------------------------------]
     g:---------------------------------------------------------------]
     d:----------3\2-------------5/6\5---3--[hold]--------------------]
     a:--55--3--5------55--3--5---------------------------------------]
     E:---------------------------------------------------------------]
      

         Use the same first part but end like this.  FAST: 

             d:-------------5------------------]
             a:-------5h7----------------------]
             E:---5h7--------------------------]



     Enjoy, hope you like it. If you think it needs changing E-mail me
   at mapleskata_04@aol.com        
Comments