Primus - Nativity In Black Chords & Tabs

 

Nativity In Black Chords & Tabs

Primus Chords & Tabs

Version: 1 Type: Bass Tab 0 ratings
1 star 2 stars 3 stars 4 stars 5 stars
comments

Nativity In Black Bass Tab

   
Primus And Ozzy: Nativity in Black
Tabbed by David White
Standard Tuning

Key:	H = hammer on
	/ = slide up
	b = bend

I'm gonna skip the intro, cause i really don't have the kinda
time to sit and learn that.

Main line:
G|-----------------------------------|
D|------------5-4-------------8b8b-7-|
A|-5H7-7--5-7------5H7-7--5-7--------|
E|-----------------------------------|
sometimes Les adds this in
G|--------|
D|------5-| keep hitting the strings as you slide up.
A|--3/7---|
E|--------|
[ Tab from: http://www.guitartabs.cc/tabs/p/primus/nativity_in_black_btab.html ]
chorus:
G|-----------9-9--------------7-7--------------5-5----
D|----------9---9------------7---7------------5---5---
A|--7-7-7--7-----7---5-5-5--5-----7---3-3-3--3-----3--
E|----------------------------------------------------

  ------------4--4-|
  -----------4--4--|
  ---2-2-2--2--2---|
  -----------------|

the rest of the chorus variations are pretty much the same notes I got there, 
so if you figured it out this far, then you should be fine. on the main line,
I'm torn weather or not the 5-4 on the D string is actually a 7-6 across D and G.
                                                              5-4 
Add a tich of bass overdrive and you've got this song cooking. Check out 
http://www.freewebs.com/4stringrecords for some other tabs I've done. See ya.
Comments