Primus - My Name Is Mud Chords & Tabs

 

My Name Is Mud Chords & Tabs

Primus Chords & Tabs

Version: 7 Type: Bass Tab 0 ratings
1 star 2 stars 3 stars 4 stars 5 stars
comments

My Name Is Mud Bass Tab

   
#----------------------------------PLEASE NOTE---------------------------------#
#This file is the author's own work and represents their interpretation of the #
#song. You may only use this file for private study, scholarship, or research. #
#------------------------------------------------------------------------------##

                            MY NAME IS MUD (Bassline)
                              As recorded by Primus
                         (From the 1993 Album PORK SODA)



Gtr I (B E A D G C) - 'Untitled'

 Intro
  Q=100
 4/4
  Gtr I
                  |----6----|    |-3-| |-3-|
    W             S S S S S S  E S S S S S S  E Q
|--------------||----------------------------------|
|--------------||----------------------------------|
|--------------||----------------------------------|
|--------------||----------------------------------|
|--------------||-------------/3-------------/3----|
|-(10)\--------||-1h3-3-1h3-3----1h3-3-1h3-3-------|


  |----6----|    |-3-| |-3-|
  S S S S S S  E S S S S S S Q.
|----------------------------------|
|----------------------------------|
|----------------------------------|
|----------------------------------|
|-------------/3-------------------|
|-1h3-3-1h3-3----1h3-3-1h3-3-0-----|


  |----6----|    |-3-| |-3-|        |----6----| |----6----|
  S S S S S S  E S S S S S S Q.     S S S S S S S S S S S S S S E E.S
|---------------------------------|------------------------------------||
|---------------------------------|------------------------------------||
|---------------------------------|------------------------------------||
|---------------------------------|------------------------------------||
|-------------/3------------------|-------------3---x---x---x----------||
|-1h3-3-1h3-3----1h3-3-1h3-3-0----|-1h3-3-1h3-3---3---3---3---0-5-xS1--||


    |----6----|    |-3-| |-3-|         |----6----|    |-3-| |-3-|
    S S S S S S  E S S S S S S  E Q    S S S S S S  E S S S S S S  E Q
||-----------------------------------|------------------------------------||
||o----------------------------------|-----------------------------------o||
||-----------------------------------|------------------------------------||
||-----------------------------------|------------------------------------||
||o-------------/3-------------/3----|-------------/3-------------/3-----o||
||--1h3-3-1h3-3----1h3-3-1h3-3-------|-1h3-3-1h3-3----1h3-3-1h3-3---------||


  |------6------|     |--3--| |--3--|
  S  S  S S  S  S   E S  S  S S  S  S   E Q
|--------------------------------------------|
|--------------------------------------------|
|--------------------------------------------|
|-----------------/10-----------------/10----|
|-8h10-10-8h10-10-----8h10-10-8h10-10--------|
|--------------------------------------------|


  |------6------|     |--3--| |--3--|
  S  S  S S  S  S   E S  S  S S  S  S   E S  S S  S
|---------------------------------------------------|
|---------------------------------------------------|
|-----------------------------------------7h10------|
|-----------------/10-----------------/10------7h10-|
|-8h10-10-8h10-10-----8h10-10-8h10-10---------------|
|---------------------------------------------------|


  |------6------|     |--3--| |--3--|
  S  S  S S  S  S   E S  S  S S  S  S   E Q
|--------------------------------------------|
|--------------------------------------------|
|--------------------------------------------|
|-----------------/10-----------------/10----|
|-8h10-10-8h10-10-----8h10-10-8h10-10--------|
|--------------------------------------------|


  |------6------|     |--3--| |--3--|
  S  S  S S  S  S   E S  S  S S  S  S   E Q
|--------------------------------------------|
|--------------------------------------------|
|--------------------------------------------|
|-----------------/10-----------------/10----|
|-8h10-10-8h10-10-----8h10-10-8h10-10--------|
|--------------------------------------------|


    |----6----|    |-3-| |-3-|         |----6----|    |-3-| |-3-|
    S S S S S S  E S S S S S S  E Q    S S S S S S  E S S S S S S  E Q
||-----------------------------------|------------------------------------||
||o----------------------------------|-----------------------------------o||
||-----------------------------------|------------------------------------||
||-----------------------------------|------------------------------------||
||o-------------/3-------------/3----|-------------/3-------------/3-----o||
||--1h3-3-1h3-3----1h3-3-1h3-3-------|-1h3-3-1h3-3----1h3-3-1h3-3---------||


   Verse
    |----6----|    |-3-| |-3-|
    S S S S S S  E S S S S S S  E Q  21x
||------------------------------------||
||o----------------------------------o||
||------------------------------------||
||------------------------------------||
||o-------------/3-------------/3----o||
||--1h3-3-1h3-3----1h3-3-1h3-3--------||


   Guitar Solo
    |------6------|     |--3--| |--3--|
    S  S  S S  S  S   E S  S  S S  S  S   E Q  12x
||----------------------------------------------||
||o--------------------------------------------o||
||----------------------------------------------||
||------------------/10-----------------/10-----||
||o-8h10-10-8h10-10-----8h10-10-8h10-10--------o||
||----------------------------------------------||


   Verse
    |----6----|    |-3-| |-3-|
    S S S S S S  E S S S S S S  E Q  24x
||------------------------------------||
||o----------------------------------o||
||------------------------------------||
||------------------------------------||
||o-------------/3-------------/3----o||
||--1h3-3-1h3-3----1h3-3-1h3-3--------||


  |----6----|    |-3-| |-3-|         |----6----|    |-3-| |-3-|
  S S S S S S  E S S S S S S  E Q    S S S S S S  E S S S S S S  E Q
|----------------------------------|----------------------------------|
|----------------------------------|----------------------------------|
|----------------------------------|----------------------------------|
|----------------------------------|----------------------------------|
|-------------/3-------------/3----|-------------/3-------------/3----|
|-1h3-3-1h3-3----1h3-3-1h3-3-------|-1h3-3-1h3-3----1h3-3-1h3-3-------|


  |----6----|    |-3-| |----6----| |----6----|
  S S S S S S  E S S S S S S S S S S S S S S S
|----------------------------------------------|
|----------------------------------------------|
|----------------------------------------------|
|----------------------------------------------|
|-------------/3-------3h4h5-4h5h6-6-x-x-5h6h7-|
|-1h3-3-1h3-3----1h3-3-------------------------|


  |------6------|     |--3--| |--3--|
  S  S  S S  S  S   E S  S  S S  S  S Q.
|------------------------------------------|
|------------------------------------------|
|------------------------------------------|
|-----------------/10-----------------9\---|
|-8h10-10-8h10-10-----8h10-10-8h10-10------|
|------------------------------------------|


  |----6----|    |-3-| |-3-|
  S S S S S S  E S S S S S S Q.
|---------------------------------|
|---------------------------------|
|---------------------------------|
|---------------------------------|
|-------------/3-------------2/---|
|-1h3-3-1h3-3----1h3-3-1h3-3------|

[ Tab from: http://www.guitartabs.cc/tabs/p/primus/my_name_is_mud_btab_ver_7.html ]
  |------6------|     |--3--| |--3--|        |----6----|    |-3-| |-3-|
  S  S  S S  S  S   E S  S  S S  S  S Q.     S S S S S S  E S S S S S S Q.
|------------------------------------------|---------------------------------|
|------------------------------------------|---------------------------------|
|------------------------------------------|---------------------------------|
|-----------------/10-----------------9\---|---------------------------------|
|-8h10-10-8h10-10-----8h10-10-8h10-10------|-------------/3-------------2/---|
|------------------------------------------|-1h3-3-1h3-3----1h3-3-1h3-3------|


  |------6------|     |--3--| |--3--|
  S  S  S S  S  S   E S  S  S S  S  S   E Q
|--------------------------------------------|
|--------------------------------------------|
|--------------------------------------------|
|-----------------/10-----------------/10----|
|-8h10-10-8h10-10-----8h10-10-8h10-10--------|
|--------------------------------------------|


  |------6------|     |--3--| |--3--|          |------6------|     |--3--| |--3--|
  S  S  S S  S  S   E S  S  S S  S  S   E Q    S  S  S S  S  S   E S  S  S S  S  S   E Q
|--------------------------------------------|--------------------------------------------|
|--------------------------------------------|--------------------------------------------|
|--------------------------------------------|--------------------------------------------|
|-----------------/10-----------------/10----|-----------------/10-----------------/10----|
|-8h10-10-8h10-10-----8h10-10-8h10-10--------|-8h10-10-8h10-10-----8h10-10-8h10-10--------|
|--------------------------------------------|--------------------------------------------|


  |------6------|     |--3--| |--3--|
  S  S  S S  S  S   E S  S  S S  S  S Q.     +W
|------------------------------------------|--------||
|------------------------------------------|--------||
|------------------------------------------|--------||
|-----------------/10----------------------|--------||
|-8h10-10-8h10-10-----8h10-10-8h10-10------|--------||
|-------------------------------------0----|-(0)----||


 Guitar Solo
  |------6------|     |--3--| |--3--|
  S  S  S S  S  S   E S  S  S S  S  S   E Q
|--------------------------------------------|
|--------------------------------------------|
|--------------------------------------------|
|-----------------/10-----------------/10----|
|-8h10-10-8h10-10-----8h10-10-8h10-10--------|
|--------------------------------------------|


  |------6------|     |--3--| |--3--|          |------6------|     |--3--| |--3--|
  S  S  S S  S  S   E S  S  S S  S  S   E Q    S  S  S S  S  S   E S  S  S S  S  S   E Q
|--------------------------------------------|--------------------------------------------|
|--------------------------------------------|--------------------------------------------|
|--------------------------------------------|--------------------------------------------|
|-----------------/10-----------------/10----|-----------------/10-----------------/10----|
|-8h10-10-8h10-10-----8h10-10-8h10-10--------|-8h10-10-8h10-10-----8h10-10-8h10-10--------|
|--------------------------------------------|--------------------------------------------|


  |------6------|     |--3--| |--3--|
  S  S  S S  S  S   E S  S  S S  S  S   E Q
|--------------------------------------------|
|--------------------------------------------|
|--------------------------------------------|
|-----------------/10-----------------/10----|
|-8h10-10-8h10-10-----8h10-10-8h10-10--------|
|--------------------------------------------|


  |----6----|    |-3-| |-3-|
  S S S S S S  E S S S S S S  E Q
|----------------------------------|
|----------------------------------|
|----------------------------------|
|----------------------------------|
|-------------/3-------------/3----|
|-1h3-3-1h3-3----1h3-3-1h3-3-------|


    |----6----|    |-3-| |-3-|
    S S S S S S  E S S S S S S  E Q   7x
||------------------------------------||
||o----------------------------------o||
||------------------------------------||
||------------------------------------||
||o-------------/3-------------/3----o||
||--1h3-3-1h3-3----1h3-3-1h3-3--------||


  |------6------|     |--3--| |--3--|
  S  S  S S  S  S   E S  S  S S  S  S   E Q
|---------------------------------------------|
|---------------------------------------------|
|---------------------------------------------|
|-----------------/10-----------------/10-----|
|-8h10-10-8h10-10-----8h10-10-8h10-10---------|
|---------------------------------------------|


  |------6------|     |--3--| |--3--|
  S  S  S S  S  S   E S  S  S S  S  S   E Q
|--------------------------------------------|
|--------------------------------------------|
|--------------------------------------------|
|-----------------/10-----------------/10----|
|-8h10-10-8h10-10-----8h10-10-8h10-10--------|
|--------------------------------------------|


  |------6------|     |--3--| |--3--|
  S  S  S S  S  S   E S  S  S S  S  S Q.
|------------------------------------------|
|------------------------------------------|
|------------------------------------------|
|-----------------/10-----------------9\---|
|-8h10-10-8h10-10-----8h10-10-8h10-10------|
|------------------------------------------|


   Outro
    |----6----|    |-3-| |-3-|
    S S S S S S  E S S S S S S  E Q  10x
||------------------------------------||
||o----------------------------------o||
||------------------------------------||
||------------------------------------||
||o-------------/3-------------/3----o||
||--1h3-3-1h3-3----1h3-3-1h3-3--------||


  |----6----|    |-3-| |-3-|
  S S S S S S  E S S S S S S  Q.      +W
|----------------------------<5>---|-(<5>)----|
|----------------------------<5>---|-(<5>)----|
|----------------------------<5>---|-(<5>)----|
|----------------------------<5>---|-(<5>)----|
|-------------/3-------------------|----------|
|-1h3-3-1h3-3----1h3-3-1h3-3-------|----------|


Duration Legend
---------------
W - whole; H - half; Q - quarter; E - 8th; S - 16th; T - 32nd; X - 64th; a - acciaccatura
+ - note tied to previous; . - note dotted; .. - note double dotted
Uncapitalized letters represent notes that are staccato (1/2 duration)
Irregular groupings are notated above the duration line
Duration letters will always appear directly above the note/fret number it represents the
duration for.  Duration letters with no fret number below them represent rests.  Multi-
bar rests are notated in the form Wxn, where n is the number of bars to rest for.  Low
melody durations appear below the staff

Tablature Legend
----------------
 h   - hammer-on
 p   - pull-off
 b   - bend
 pb  - pre-bend
 r   - bend release (if no number after the r, then release immediately)
 /\  - slide into or out of (from/to "nowhere")
 s   - legato slide
 S   - shift slide
  - natural harmonic
[n]  - artificial harmonic
n(n) - tapped harmonic
 ~   - vibrato
 tr  - trill
 T   - tap
 TP  - trem. picking
 PM  - palm muting
\n/  - tremolo bar dip; n = amount to dip
 \n  - tremolo bar down
 n/  - tremolo bar up
/n\  - tremolo bar inverted dip
 =   - hold bend; also acts as connecting device for hammers/pulls
 <>  - volume swell (louder/softer)
 x   - on rhythm slash represents muted slash
 o   - on rhythm slash represents single note slash

Misc Legend
-----------
 |  - bar
||  - double bar
||o - repeat start
o|| - repeat end
*|  - double bar (ending)
 :  - bar (freetime)
 $  - Segno
 &  - Coda
Tempo markers -  = BPM(8/16=s8/s16), where s8 = swing 8ths, s16 = swing 16ths
Comments