Primus - My Name Is Mud Chords & Tabs

 

My Name Is Mud Chords & Tabs

Primus Chords & Tabs

Version: 6 Type: Bass Tab 0 ratings
1 star 2 stars 3 stars 4 stars 5 stars
comments

My Name Is Mud Bass Tab

     My Name Is Mud                                  


5 string fretless bass
                                                             
G||--------------------|------------------------------------|
D||--------------------|------------------------------------|
A||--------------------|------------------------------------|
E||--------------------|--------------3--------------3------|
B||--10/---------------|--1h3-3-1h3-3----1h3-3-1h3-3--------|


                                                                                
|--------------------------------------||--------------------------------------|
|*------------------------------------*||--------------------------------------|
|--------------------------------------||--------------------------------------|
|*--------------3---------------------*||--------------3--------------3--------|
|---1h3-3-1h3-3----1h3-3-1h3-3-0-------||--1h3-3-1h3-3----1h3-3-1h3-3----10/---|


                           2x                                         
|--------------------------||----------------------------------------|
|*------------------------*||----------------------------------------|
|--------------------------||----------------------------------------|
|*------------------------*||--------------3---------------0---------|
|---1--1--3--1--1--5-------||--1h3-3-1h3-3---3-x-3-x-3-x-0----x--1-x-|


                                                        
-------------------------|-----------------------------|
-------------------------|---------------------7h10----|
------------------7------|------------------7-------7--|
--8--8--10--8--8---------|--8--8--10--8--8-------------|
-------------------------|-----------------------------|


                                                       20x
|---------------------------||--------------------------||
|*-------------------------*||*------------------------*||
|-------------------7-------||--------------------------||
|*--8--8--10--8--8---------*||*--------x--------x------*||
|---------------------------||---x--x-----x--x----------||

[ Tab from: http://www.guitartabs.cc/tabs/p/primus/my_name_is_mud_btab_ver_6.html ]
                                      3x                          11x
--------------------------------------||---------------------------||
*------------------------------------*||*-------------------------*||
--------------------------------------||-------------------7-------||
*--------------3--------------3------*||*--8--8--10--8--8---------*||
---1h3-3-1h3-3----1h3-3-1h3-3---------||---------------------------||


                         18x                                      7x
--------------------------||--------------------------------------||
*------------------------*||*------------------------------------*||
--------------------------||--------------------------------------||
*--------x--------x------*||*--------------3--------------3------*||
---x--x-----x--x----------||---1h3-3-1h3-3----1h3-3-1h3-3---------||


                           3x                             
---------------------------||---------------------------||
*-------------------------*||*-------------------------*||
-------------------7-------||-------------------7-------||
*--8--8--10--8--8---------*||*--8--8--10--8--8---------*||
---------------------------||---------------------------||


                                                    
-------------------------|-------------------------|
-------------------------|-------------------------|
------------------7------|-------------------------|
--8--8--10--8--8---------|--8--8--10--8--8---------|
-------------------------|------------------0------|


                           15x                                      9x
|---------------------------||--------------------------------------||
|*-------------------------*||*------------------------------------*||
|-------------------7-------||--------------------------------------||
|*--8--8--10--8--8---------*||*--------------3--------------3------*||
|---------------------------||---1h3-3-1h3-3----1h3-3-1h3-3---------||


                             nh              
-----------------------------5------|----||
-----------------------------5------|----||
-----------------------------5------|----||
--------------3---------------------|----||
--1h3-3-1h3-3----1h3-3-1h3-3--------|----||      nh-natural harmonic
                                                 x-dead note
                                                 h-hammer on
Comments