Primus - My Name Is Mud Chords & Tabs

 

My Name Is Mud Chords & Tabs

Primus Chords & Tabs

Version: 4 Type: Bass Tab 0 ratings
1 star 2 stars 3 stars 4 stars 5 stars
comments

My Name Is Mud Bass Tab

   
-------------------------------------------------------------------------------
			     MY NAME IS MUD - Primus
-------------------------------------------------------------------------------

Tabbed By : Loser Dave
e-mail: 

Tuning:BADG

p=light pop
s=slap
P=heavy pop

G|-------------------------------------------------------|
D|-------------------------------------------------------|
A|-------------------------------------------------------|
B|--14/1-------------------------------------------------|
   Play this slide part pretty slow.
[ Tab from: http://www.guitartabs.cc/tabs/p/primus/my_name_is_mud_btab_ver_4.html ]
G|----------------------------------|
D|----------------------------------|
A|----------------------------------|
B|-0h2p0--0h2h3-3-0h2p0--0h2h3-3----|
   SSSSS  SSSSS S SSSSS  SSSSSSS
 Play this part for a few times

G|------------------------------------------------------------------------|
D|---------------------------5--------------------------------------------|
A|--------------2---------------------------------------------------------|
B|-0h20--0h2h3-----0h2h3-2------------------------------------------------|
   ssss  sssss  p  sssss P   s

Then u play the verse the whole song adding some notes and playing it muted.

THATS IT.
Comments