Primus - Mrs Blaileen Chords & Tabs

 

Mrs Blaileen Chords & Tabs

Primus Chords & Tabs

Version: 2 Type: Bass Tab 0 ratings
1 star 2 stars 3 stars 4 stars 5 stars
comments

Mrs Blaileen Bass Tab

   
From: Primus8@aol.com
Date: Sun, 25 Jun 1995 11:37:45 -0400

__________________________________________________
--------------------------------------------------
"Mrs. Blaileen" from the album "Tales From the Punchbowl"
__________________________________________________
--------------------------------------------------

Tabbed by: Temesgen Wubneh (Temesgen.Wubneh@p0.f138.n2625.z1.fidonet.org; 
	   Twub@aol.com or Temesgen.Wubneh@mhs.lmc.org
	Detune "E" to "D"
*=Coda

                     *
  (Main riff)                            
|-------xx-10-10------------------xx-10-10---------------xx-13-13-----------|
|-------xx-10-10------------------xx-10-10---------------xx-13-13-----------|
|---------------------------------------------------------------------------|
|--0h--2-----------0h-2-3/5--0h-2----------0h-2-3/5--7/8-----------7/8-5\3--|

			       
|------------------------|
|7/8-----------7/8-5\3---|

   
  (Chorus) 
   "Oh What a lonely..."
G:------------------------|
D:------------------------|
A:------------------------|
D:--3----------2--1-------|



  =-->  *                                   
  | 
  | (Bridge)
|-10------------4-3-2--------------4-3-2-2-------|
|-10-------------------4-3-2--------------4-3-2-2|
|------------------------------------------------|
|------------------------------------------------|



__________________________________________________
--------------------------------------------------
"Nature Boy" from "Pork Soda"
__________________________________________________
--------------------------------------------------
Tabbed by Jeffrey Swing/Christopher Preston

	For the intro and verse riff, both notes are vibratos, about 3/4 to
1 whole step.  The chorus is strummed, except for the last 3 notes, which are

plucked.  For the rest at the interlude, Les fiddles with distortion for a
bit. 
|-------|
|--|9|--|
|-------|
|-------|

Intro + Verse:
		   20 times
|------------------|
|*----------------*|
|*--6-------------*|
|-----------7------|


Chorus:
			8 times
|---9---8--8-8-8\-------------|
|*--9---8--8-8-8\------------*|
|*--7---6--6-6-6\------------*|
|------------------7-7-7------|

Verse 2:
		  8 times
|------------------|
|*----------------*|
|*--6-------------*|
|-----------7------|

Chorus 2:
			12 times
|---9---8--8-8-8\-------------|
|*--9---8--8-8-8\------------*|
|*--7---6--6-6-6\------------*|
|------------------7-7-7------|

		16 times
|------------------|
|*----------------*|
|*--6-------------*|
|-----------7------|

			     7 times
|---9---8--8-8-8\-------------|
|*--9---8--8-8-8\------------*|
|*--7---6--6-6-6\------------*|
|------------------7-7-7------|

Interlude:
|---------|
|-|9 1/2|-|
|---------|
|---------|

*&*
|-------------------------------|--------------------8----|
|*--------------------------8---|------------------8-----*|
|*--6--6-6--6-6-6-6--6--6-6---6-|--6--6-6-4-6--6-6-------*|
|-------------------------------|-------------------------|

		     Go to *&*
|--------------------||
|--------------------||
|---6-4---------4----||
|-------6-4-0-6------||

								  5 times
|-------8---6-8h------8---9--|------8---6-8h--8-8-8-9-9-9-11-11-11-|
|*----8---8---------8-----9--|----8---8---------------------------*|
|*--6-------------6-----7----|--6---------------------------------*|
|----------------------------|-------------------------------------|



|---8-6---------------|
|-------8-6-4-6-4-----|
|-----------------4-6-|
|---------------------|


|-------------------------------|--------------------8----|
|*--------------------------8---|------------------8-----*|
|*--6--6-6--6-6-6-6--6--6-6---6-|--6--6-6-4-6--6-6-------*|
|-------------------------------|-------------------------|

		     
|--------------------|
|--------------------|
|---6-4---------4----|
|-------6-4-0-6------|

|---8-------|-8-------|-8-8-8-----|-8-8-8------|
|*--8-------|-8-------|-8-8-8-----|-8-8-8-----*|
|*--6-------|-8-------|-6-6-6-----|-6-6-6-----*|
|-----------|---------|-----------|------------|

|-------8---8---------8---8---------------|
|-----8---8---8-----8---8---8--7----------|
|---6-------------6-----------------12\---|
|-----------------------------------------|

|-------8---8---------8---8---------------|---------------------|
|-----8---8---8-----8---8---8--7----------|---------------------|
|---6-------------6-----------------12\---|-12------------------|
|-----------------------------------------|---------------------|

     
|--12-12-14-12----12----------|-------|
|--------------14----14-12----|-| 2 |-|
|--------------------------12-|-------|
|-----------------------------|-------|

			      25 times
|---9---8--8-8-8\-------------|
|*--9---8--8-8-8\------------*|
|*--7---6--6-6-6\------------*|
|------------------7-7-7------|



			 6 times
|--X--X-X-X--X-X-X-9\----|
|*-X--X-X-X--X-X-X-9\---*|
|*-X--X-X-X--X-X-X-7\---*|
|--X--X-X-X--X-X-X-------|


__________________________________________________
--------------------------------------------------
"Over The Electric Grapevine" from "Tales from the Punchbowl"
__________________________________________________
--------------------------------------------------
Tabbed By Christopher Preston

Intro
|----------7---7-9--------14-16--16-16-16-17-19-17-16----------------------|
|-7/9--7-9---9------14-16-----------------------------19-16-14-12-12-14-12-|
|--------------------------------------------------------------------------|
|--------------------------------------------------------------------------|


|------------4-|
|-7-7-9--4-----|
|----------2---|
|--------------|

__________________________________________________
--------------------------------------------------
"Poetry And Prose" from "The Beavis and Butthead Experience"
__________________________________________________
--------------------------------------------------
Tabbed by Jeffrey Swing

	The notes marked with a "*" are played with WIDE vibrato (tremlo bar
perhaps?) 

main riff:

	      /\/                   V   ^  V
G-|-------------------------|-------9--10-11--|--------------------------|-
D-|*----2P----3P*----XP--XP-|-------9--10-11--|-----2P----3P-----XP--XP--|-
A-|*---------------1S--1S---|-2P--------------|----------------1S--1S----|-
E-|--0S----XS---------------|---0S------------|--0S----XS----------------|-

G-|------------------------------|-
D-|-----------------------------*|-
A-|-2P--------------------------*|-
E-|---0S-----0S--/3S---/3S---0S--|-


interlude riff:
	 V ^ V ^ V ^       V      V ^ V  ^  V
G-|------9-9-9-9-9-9/10--|-9------9-9-9-10-11------|-
D-|*-----9-9-9-9-9-9/10--|-9------9-9-9-10-11------|-
A-|*---------------------|-------------------------|-
E-|--0S------------------|----0S---------------0S--|-

	 V ^ V ^  V  ^   V          V  ^  V      V  ^
G-|------9-9-9-9-10-11-(12)--|------9-10-11------9-10--------|-
D-|------9-9-9-9-10-11-(12)--|------9-10-11------9-10-------*|-
A-|--------------------------|------------------------------*|-
E-|--0S-----------------0S---|--0S-----------0S---------0S---|-



__________________________________________________
--------------------------------------------------
"Riddles Are Abound Tonight" from "Riddles Are Abound Tonight" by Sausage
__________________________________________________
--------------------------------------------------
[ Tab from: http://www.guitartabs.cc/tabs/p/primus/mrs_blaileen_btab_ver_2.html ]
intro riff
				    V ^ V ^ V
|---------3P-0p-|--------3P-0p--|-X-X-X-X-X--------3P------|
|*--3P-5h-------|--3P-5h--------|-X-X-X-X-X--3P-5h---------|
|*--------------|---------------|-X-X-X-X-X----------------|
|---------------|---------------|-X-X-X-X-X------------5S\-|

main riff

|-----------------|----------------|----------------3P-0p--|-
|*--5P-5P----5P---|--5P-5P----5P---|----------3P-5h-------*|-
|*----------------|----------------|----------------------*|-
|----------3S--3S-|---------3S--3S-|--2S-2S----------------|-




__________________________________________________
--------------------------------------------------
"Sgt. Baker" from "Sailing the Seas Of Cheese"
__________________________________________________
--------------------------------------------------
Tabbed by Christopher Preston

Main Riff:
|-------------------------|--------------------|
|---------------7-5h------|*--------7-5h------*|
|-0-0------3/7-------5-7h-|*-0-3/7-------5-7h-*|
|-------------------------|--------------------|

Variation 1:

|---------9-7--------|
|---------7-5--7-9---|
|--0-3/7-------5-7---|
|--------------------|




__________________________________________________
--------------------------------------------------
"Southbound Pachyderm" from the album "Tales From the Punchbowl"
__________________________________________________
--------------------------------------------------
Tabbed by Christopher Preston

|--------------------------------|
|7--9---10-----------------------|
|00000000000000000000000000000000|
|--------------------------------|

				   3X
|----------------------------------|
|*--------------------------------*|
|*00000000000000000000000000000000*|
|----------------------------------|


|--------------------------------|
|7--9---10---9-10h--5--7---------|
|00000000000000000000000000000000|
|--------------------------------|


|--------------------------------|
|--------------------------------|
|00000000000000000000000000000000|
|--------------------------------|


|--------------------------------|
|7--9---10-----------------------|
|00000000000000000000000000000000|
|--------------------------------|


|--------------------------------|
|--------------------------------|
|00000000000000000000000000000000|
|--------------------------------|


|--17----------------------------|
|--17----------------------------|
|00000000000000000000000000000000|
|--------------------------------|


|--------------------------------|
|--------------------------------|
|00000000000000000000000000000000|
|--------------------------------|


|16--12/13--14-------------------|
|--------------------------------|
|00000000000000000000000000000000|
|--------------------------------|


|14-14-14-14/15/16---------------|
|14-14-14-14/15/16---------------|
|00000000000000000000000000000000|
|--------------------------------|


|--------------------------------|
|--------------------------------|
|00000000000000000000000000000000|
|--------------------------------|


|--------------------------------|
|7--9---10-----------------------|
|00000000000000000000000000000000|
|--------------------------------|


|--------------------------------|
|--------------------------------|
|00000000000000000000000000000000|
|--------------------------------|


|--------------------------------|
|7--9---10---9-10h--5--7---------|
|00000000000000000000000000000000|
|--------------------------------|


|--------------------------------|
|--------------------------------|
|00000000000000000000000000000000|
|--------------------------------|


|--17----------------------------|
|--17----------------------------|
|00000000000000000000000000000000|
|--------------------------------|


|--------------------------------|
|--------------------------------|
|00000000000000000000000000000000|
|--------------------------------|


|16--12/13--14-------------------|
|--------------------------------|
|00000000000000000000000000000000|
|--------------------------------|


|14-14-14-14/15/16---------------|
|14-14-14-14/15/16---------------|
|00000000000000000000000000000000|
|--------------------------------|


|--------------------------------|
|--------------------------------|
|00000000000000000000000000000000|
|--------------------------------|


|14-14-14-14/15/16---------------|
|14-14-14-14/15/16---------------|
|00000000000000000000000000000000|
|--------------------------------|


|--------------------------------|
|--------------------------------|
|00000000000000000000000000000000|
|--------------------------------|


|--------------------------------|
|--------------------------------|
|00000000000000000000000000000000|
|--------------------------------|


|--------------------------------|
|7--9---10-----------------------|
|00000000000000000000000000000000|
|--------------------------------|


|--------------------------------|
|--------------------------------|
|00000000000000000000000000000000|
|--------------------------------|


|--------------------------------|
|7--9---10---9-10h--5--7---------|
|00000000000000000000000000000000|
|--------------------------------|


|--------------------------------|
|--------------------------------|
|00000000000000000000000000000000|
|--------------------------------|


|--------------------------------|
|7--9---10-----------------------|
|00000000000000000000000000000000|
|--------------------------------|


|--------------------------------|
|--------------------------------|
|00000000000000000000000000000000|
|--------------------------------|


|--------------------------------|
|--------------------------------|
|00000000000000000000000000000000|
|--------------------------------|


|--19----------------------------|
|--19----------------------------|
|00000000000000000000000000000000|
|--------------------------------|


|16--12/13--14-------------------|
|--------------------------------|
|00000000000000000000000000000000|
|--------------------------------|


|14-14-14-14/15/16---------------|
|14-14-14-14/15/16---------------|
|00000000000000000000000000000000|
|--------------------------------|


			   3X
|----------------------------------|
|*--------------------------------*|
|*00000000000000000000000000000000*|
|----------------------------------|


|----------------------------------|
|*10--9--7--5-5--6-6--7-----------*|
|*00000000000000000000000000000000*|
|----------------------------------|


|--------------------------------|
|10-9-10-12-10-12-14-------------|
|00000000000000000000000000000000|
|--------------------------------|


|--------------------------------|
|--------------------------------|
|00000000000000000000000000000000|
|--------------------------------|


|--19----------------------------|
|--19----------------------------|
|00000000000000000000000000000000|
|--------------------------------|


|16--12/13--14-------------------|
|--------------------------------|
|00000000000000000000000000000000|
|--------------------------------|


|14-14-14-14/15/16---------------|
|14-14-14-14/15/16---------------|
|00000000000000000000000000000000|
|--------------------------------|

Verse:
				X times
|--------------------------------|
|--------------------------------|
|00000000000000000000000000000000|
|--------------------------------|


Chorus:

|14-14-14-14/15/16---------------|
|14-14-14-14/15/16---------------|
|00000000000000000000000000000000|
|--------------------------------|

				X times
|--------------------------------|
|--------------------------------|
|00000000000000000000000000000000|
|--------------------------------|











Comments