Primus - Mr Krinkle Chords & Tabs

 

Mr Krinkle Chords & Tabs

Primus Chords & Tabs

Version: 1 Type: Bass Tab 0 ratings
1 star 2 stars 3 stars 4 stars 5 stars
comments

Mr Krinkle Bass Tab

From: Primus8@aol.com
Music by Primus, Words by Les Claypool

__________________________________________________
--------------------------------------------------
"Mr. Krinkle" from "Pork Soda"
__________________________________________________
--------------------------------------------------
Tabbed by Christopher Preston
	This one is played on an acoustic stand-up and it doesn't sound 
nearly as good, also because it's bowed.  This should be played with a high
tone, or, play the "High" version, which, I think, sounds closer.

Intro:
[ Tab from: http://www.guitartabs.cc/tabs/p/primus/mr_krinkle_btab.html ]
|---------------------------|-----------------------------------|
|---------------------------|-----------------------------------|
|-------1-------------------|-------1---------------------------|
|-3-1-3---3-1-3-1-2----3----|-3-1-3---3-1-3-1-1-----------------|

Main Riff:
|-------------------------|-------------------9-8-7-6-5-4-|
|-------------------------|-------------------------------|
|-------1-------------1---|-------1-----------------------|
|-3-1-3---3-1---3-1-3---3-|-3-1-3---3-1---3-1-------------|

"High" Version (Corresponds w/ reg. ver):
|--------3-------------------|-------3--------------------------|
|-5-3-5----5-3-5-3-4----5----|-5-3-5---5-3-5-3-3----------------|
|----------------------------|----------------------------------|
|----------------------------|----------------------------------|

|-------3-----3-------3---|-------3-----3-----9-8-7-6-5-4-|
|-5-3-5---5-3---5-3-5---5-|-5-3-5---5-3---5-3-------------|
|-------------------------|-------------------------------|
|-------------------------|-------------------------------|


Comments