Primus - Master Of Puppets Chords & Tabs

 

Master Of Puppets Chords & Tabs

Primus Chords & Tabs

Version: 2 Type: Bass Tab 0 ratings
1 star 2 stars 3 stars 4 stars 5 stars
comments

Master Of Puppets Bass Tab

   
Primus - Master of Puppets 
Tabbed by Carlos Reyes. 

TUNNING: STANDARD -G-D-A-E-
It's an easy song but listen to the song before playin' it

Intro:

|------------------|-
|------------------|-
|------------------|-
|--0/12---12-12-12-|-

Riff 1: 
                       V  V  V                                          x4 (all)
|----------------------7--6--5-------------------------------|----------------|-                                         
|----------------------7--6--5-------------------------------|----------------|-
|-------7S-----6S------5--4--3-------2S-------1S-------0S----|----------------|-          
|--0S-0S--0S-0S--0S-0S---------0S-0S----0S-0S----0S-0S-------|-0S-3S-0S-2S-0S-|-

[ Tab from: http://www.guitartabs.cc/tabs/p/primus/master_of_puppets_btab_ver_2.html ]
Riff 2:
                                                Break     x2 (all)                     
|----------------------------------------|----------------------|-          
|----------------------------------------|----------------------|-          
|-------2S--3S--4S--3S--2S-2S-----2S--3S-|----------------------|-
|--0S-0S--0S--0S--0S--0S-----0S-0S--OS---|-0S-3S-2p-0S-3S-2p-0S-|-


Riff 3:
                                                  V                                                Break     x2 (all)
|-------------------------------------------------------------------------------------------|----------------------|-        Play the "Break" twice  
|-------------------------------------------------4-----------------------------------------|----------------------|-       the second time
|-------2S--3S--4S--3S--2S-2S-----2S--3S--4S--3S--2--------2S--3S--4S--3S--2S-2S-----2S--3S-|----------------------|-
|--0S-0S--0S--0S--0S--0S-----0S-0S--0S--0S--0S--0S----0S-0S--0S--0S--0S--0S-----0S-0S--OS---|-0S-3S-2p-0S-3S-2p-0S-|-


Riff 4:
                              x2          
G-|-------------15P---------15P/-|-            
D-|-----14S-14S-----14S-14S------|-
A-|------------------------------|-
E-|------------------------------|-

This is my first tab.
Comments