Primus - Mary The Ice Cube Chords & Tabs

 

Mary The Ice Cube Chords & Tabs

Primus Chords & Tabs

Version: 1 Type: Bass Tab

Mary The Ice Cube Bass Tab

   
This is a copy from MXTabs.com, poster: rhill555
Artist: Primus
Song: Mary the Ice Cube
Album: Animals Should Not Try to Act Like People (2003)
Tuning: E-A-D-G
Notes: Played on a fretless 6-string

(-3-) - Triplet
/ - Slide Up
\ - Slide Down
h - Hammer-On
p - Pull-Off
v - Flamenco downstroke


Intro: Delay effect
C|-------------------12-14-12-15\-----------------15\--|
G|----------12-14------------------------12-14---------|
D|-------14-------12------------------14-------12------|
A|--0/12---------------------------12------------------|
E|-----------------------------------------------------|
B|-----------------------------------------------------|

C|-----------------12-14p12h15\----------------16\--|
G|--------12-14-----------------------12-14---------|
D|-----14-------12-----------------14-------12------|
A|--12--------------------------12------------------|
E|--------------------------------------------------|
B|--------------------------------------------------|

C|---------------------------------|
G|---------------------------------|
D|---------------------------------|
A|-0/12-12-12-12-12-12-12-12-12\\--|
E|---------------------------------| (x2)
B|---------------------------------|

C|-------------------12-14-12-15\-----------------16\14\12\--|
G|----------12-14------------------------12-14---------------|
D|-------14-------12------------------14-------12------------|
A|--0/12---------------------------12------------------------|
E|-----------------------------------------------------------|
B|-----------------------------------------------------------|
                                                 (---3---)
C|-------------------12-14-12-15\-----------------15-15-15-14-12-----------|
G|----------12-14------------------------12-14-------------------12h14-----|
D|-------14-------12------------------14-------12----------------------14--|
A|--0/12---------------------------12--------------------------------------|
E|-------------------------------------------------------------------------|
B|-------------------------------------------------------------------------|


Chorus:
C|-------------------------------------------------|
G|-------------------------------------------------|
D|-------------------------------------------------|
A|-0-0-0--0-0-0--0-0--0--0-0-0-0-0--0-0-0-0--0-0-0-|
E|-------------------------------------------------|
B|-------------------------------------------------|

C|--------------------------------------------------------------------|
G|-------------------------12h14-14-12h14-14-12h14-14-12h14-14-12-----|
D|----------------------------------------------------------------14--|
A|--0-0-0--0-0-0---0-0--0---------------------------------------------|
E|--------------------------------------------------------------------|
B|--------------------------------------------------------------------|

C|---------------------------------------------------|
G|---------------------------------------------------|
D|---------------------------------------------------|
A|--0-0-0--0-0-0--0-0--0--0-0-0-0-0--0-0-0-0--0-0-0--|
E|---------------------------------------------------|
B|---------------------------------------------------|

C|---------------18\--|
G|--------------------|
D|--------------------|
A|--0-0-0--0-0-0------|
E|--------------------|
B|--------------------|


Verse                                            (---3---)
C|-------------------12-14-12-15\-----------------15-15-15-14-17--|
G|----------12-14------------------------12-14--------------------|
D|-------14-------12------------------14-------12-----------------|
A|--0/12---------------------------12-----------------------------|
E|----------------------------------------------------------------|
B|----------------------------------------------------------------|

C|-----------------15\14\7/9------------------18-18\17\16\14--|
G|--------12-14----------------------12-14--------------------|
D|-----14-------12----------------14-------12-----------------|
A|--12-------------------------12-----------------------------|
E|------------------------------------------------------------|
B|------------------------------------------------------------|



Chorus: The chord is played lightly      v 
C|-------------------------------------------------|
G|---------------------------------------7/8-------|
D|---------------------------------------7/8-------|
A|--0-0-0--0-0-0--0-0--0--0-0-0-0-0--0-0----0-0-0--|
E|-------------------------------------------------|
B|-------------------------------------------------| (x3)

                                          Tap these
C|-------------------------------15--15--15--15--15--15--15--15--|
G|-----------------------------15--15--15--15--15--15--15--15----|
D|---------------------------------------------------------------|
A|--0-0-0--0-0-0--0-0--0--0--0-----------------------------------|
E|---------------------------------------------------------------|
B|---------------------------------------------------------------|
                                         v
C|-------------------------------------------------|
G|---------------------------------------7/8-------|
D|---------------------------------------7/8-------|
A|--0-0-0--0-0-0--0-0--0--0-0-0-0-0--0-0----0-0-0--|
E|-------------------------------------------------|
B|-------------------------------------------------|

C|---------------------------------------------------|
G|---------------------------------------------------|
D|---------------------------------------------------|
A|--0-0-0--0-0-0--0-0--0--0-0-0-0-0--0-0-0-0--0-0-0--|
E|---------------------------------------------------|
B|---------------------------------------------------|
                                         v
C|-------------------------------------------------|
G|---------------------------------------7/8-------|
D|---------------------------------------7/8-------|
A|--0-0-0--0-0-0--0-0--0--0-0-0-0-0--0-0----0-0-0--|
E|-------------------------------------------------|
B|-------------------------------------------------|
[ Tab from: http://www.guitartabs.cc/tabs/p/primus/mary_the_ice_cube_btab.html ]
       Play as you slide \/
C|-------------------------15//////---|
G|-----------------------15////////---|
D|------------------------------------|
A|--0-0-0--0-0-0--0-0--0--------------|
E|------------------------------------|
B|------------------------------------|


Verse:                                      (--3---)
C|-----------------12-12-15-----------------17-17-17-17--15-15-12-14-12-----|
G|--------12-14--------------------12-14--------------------------------14--|
D|-----14-------12--------------14-------12---------------------------------|
A|--12-----------------------12---------------------------------------------|
E|--------------------------------------------------------------------------|
B|--------------------------------------------------------------------------|

C|--15-15-15-15-17-17-17-17-14--12-14-12--------------------------|
G|---------------------------------------14-9\--------------------|
D|----------------------------------------------------------------|
A|---------------------------------------------0-0-3/5/7/8/10/12--|
E|----------------------------------------------------------------|
B|----------------------------------------------------------------|

C|-------------------------------------------------------------------------|
G|--------------------------------2//3--------------------------------2//3-|
D|--------------------------------2//3--------------------------------2//3-|
A|-0--0-0--0-0--0--0--0--0--0-0-0------0--0-0--0-0--0--0--0--0--0-0-0------|
E|-------------------------------------------------------------------------|
B|-------------------------------------------------------------------------|

C|-------------------------------------------------------------------------|
G|--------------------------------2//3--------------------------------2//3-|
D|--------------------------------2//3--------------------------------2//3-|
A|-0--0/10\/10\/10\0--0--0--0-0-0------0--0-0--0-0--0--0--0--0--0-0-0------|
E|-------------------------------------------------------------------------|
B|-------------------------------------------------------------------------|

C|-------------------------------------------------------------------------|
G|--------------------------------2//3--------------------------------2//3-|
D|--------------------------------2//3--------------------------------2//3-|
A|-0--0-0--0-0--0--0--0--0--0-0-0------0--0-0--0-0--0--0--0--0--0-0-0------|
E|-------------------------------------------------------------------------| (x3)
B|-------------------------------------------------------------------------|


Bass Solo:         (---3---)
C|------------------12-12-12-15-15----------------14-15-14-17-17\--|
G|---------12-14-------------------------12-14---------------------|
D|------14-------12-------------------14-------12------------------|
A|--/12----------------------------12------------------------------|
E|-----------------------------------------------------------------|
B|-----------------------------------------------------------------|

C|------------------14-15-14-17-14-15-14--|
G|---------12-14--------------------------|
D|------14-------12-----------------------|
A|--/12-----------------------------------|
E|----------------------------------------|
B|----------------------------------------|

C|--------------------12----12-14-15-14-12-----|
G|--------12-14-12-14----14----------------14--|
D|-----14--------------------------------------|
A|--12-----------------------------------------|
E|---------------------------------------------|
B|---------------------------------------------|

C|-------15----------10-12-14-12----12-14-15-14-12-----|
G|----------12-14-12-------------14----------------14--|
D|-----------------------------------------------------|
A|--xx12-----------------------------------------------|
E|-----------------------------------------------------|
B|-----------------------------------------------------|

I'm still in the process of tabbing out the rest of the solo
Just mess around in the general area of the above parts

C|-------------------------------------------------------------------------|
G|--------------------------------2//3--------------------------------2//3-|
D|--------------------------------2//3--------------------------------2//3-|
A|-0--0-0--0-0--0--0--0--0--0-0-0------0--0-0--0-0--0--0--0--0--0-0-0------|
E|-------------------------------------------------------------------------| (x3)
B|-------------------------------------------------------------------------|

C|-----------------------------------------------------------------------------|
G|--------------------------------2//3-----------------------------------------|
D|--------------------------------2//3-----------------------------------------|
A|-0--0-0--0-0--0--0--0--0--0-0-0------0--0-0--0-0--0--0--0--0--0/11-11-11-11--|
E|-----------------------------------------------------------------------------|
B|-----------------------------------------------------------------------------|


Verse: With Envelope Filter and Distortion
C|------------------12-15-15-----------------12-15-15--|
G|---------12-14--------------------12-14--------------|
D|------14-------12--------------14-------12-----------|
A|--/12-----------------------12-----------------------|
E|-----------------------------------------------------|
B|-----------------------------------------------------|

C|-----------------12-15-15-15-15-----------------------------|
G|--------12-14-------------------------12-14----15\\\\\\\\\--|
D|-----14-------12-------------------14-------12--------------|
A|--12----------------------------12--------------------------|
E|------------------------------------------------------------|
B|------------------------------------------------------------|

C|-------------------------------------------------------------------|
G|-------------------------------------------------------------------|
D|-------------------------------------------------------------------|
A|--8-8-8-8-6-6-6-6-8-8-8-8-6-6-6-6-8-8-8-8-6-6-6-6-5-5-5-5----------|
E|----------------------------------------------------------8-6------|
B|--------------------------------------------------------------8-6--|



Outro: Clean except delay
C|------------------15-15-15--|
G|---------12-14--------------|
D|------14-------12-----------|
A|--/12-----------------------|
E|----------------------------|
B|----------------------------|