Primus - Last Superpower Aka Rapscallion Chords & Tabs

 

Last Superpower Aka Rapscallion Chords & Tabs

Primus Chords & Tabs

Version: 1 Type: Bass Tab 0 ratings
1 star 2 stars 3 stars 4 stars 5 stars
comments

Last Superpower Aka Rapscallion Bass Tab

   
standard tuning "e,a,d,g"
         intro
|-------------------------|g
|-------------------------|d
|-------------------------|a         x2 then drums and guitar come in
|---7---2--1--3-----------|e  

         verses
|-------------------------|----------------------|g
|-------------------------|----------------------|d
|-------------------------|----------------------|a  x8
|---7---2--1--3-----------|---7---2--1-----------|e  
                               play this when les says "I dont like you"
|-------------------------|        |-----------------------|
|-------------------------|        |-----------------------|
|-------------------------|  x8    |-----------------------|  x8
|---7---2--1--------------|        |---7---2---------------|

|-------------------------|---------------------|
|-------------------------|---------------------|
|-------------------------|---------------------| 
|---7---2--1--3-----------|---7---2--1----------|

|-------------------|         |-------------------|
|-------------------|         |-------------------|
|-------------------| x4      |-------------------|  x8
|---7---2--1--------|         |----7----2---------|
[ Tab from: http://www.guitartabs.cc/tabs/p/primus/last_superpower_aka_rapscallion_btab.html ]
|------------------------------|--------------------------|
|------------------------------|--------------------------|
|------------------------------|--------------------------|  x8
|---7---2--1--3----------------|--------7---2--1----------|

            chorus
       x3
|----------------|-----------------|      |----------------------------|    
|----------------|-----------------|      |----------------------------|
|----------------|-----------------|   x5 |----------------------------|
|---7-7---2--1---|---7-----2-2-2---|      |----7---2----7----1---------|



|--------------------------|------------------|-------------------|
|--------------------------|------------------|-------------------|
|--------------------------|------------------|-------------------|
|-----7---2--1--3----------|----8----2--1--3--|------7---2--1--3--|

            outro

|-----------------------------------|      |-----------------------|
|-----------------------------------|      |-----------------------|
|-----------------------------------|x11   |-----------------------|  x5
|----7---2--1--3---------7---2--1---|      |----7---2--1--3--------|



if theres any problem with this tab email me at imrickjames2004@hotmail.com
Comments