Primus - Lacquer Head Chords & Tabs

 

Lacquer Head Chords & Tabs

Primus Chords & Tabs

Version: 1 Type: Tab 0 ratings
1 star 2 stars 3 stars 4 stars 5 stars
comments

Lacquer Head Tab

   
Primus - Lacquer Head
(dropped D)

this is the correct tab of Primus' Lacquer Head


verses:
e|---------------------------
b|---------------------------
g|--11-----11-----11-----11--
d|--10-----10-----10-----10--
a|---------------------------
D|---------------------------

e|--------------------------
b|--------------------------
g|-------------11-----11----
d|-------------10-----10----
a|-2h3----------------------
D|-----4h5------------------

chorus:
e|-------------------8-8-8------------------------11-11-11-
b|-------------7-7-7---------------------10-10-10----------
g|-----------5------------------------8--------------------
d|---------5------------------------8----------------------
a|-3-3-3--------------------6-6-6---------------------------
D|--------------------------------------------------------


post chorus:
  pm--|       pm|-----| 
e|------------------------
b|------------------------
g|------10\---------------
d|-2h3--10\----3-4-2-3----
a|-2h3--8-\----3-4-2-3----
D|-2h3---------3-4-2-3----
  
chorus

post chorus

bass fill

verse
[ Tab from: http://www.guitartabs.cc/tabs/p/primus/lacquer_head_tab.html ]
chorus

post chorus

chorus

post chorus

Bridge
pick scrape, generate feedback, lots of delay, wah, etc 
e|-------------
b|-------------
g|-------------
d|------11-----
a|---------10--
D|-5-----------

Pre-chorus

bass arr. for guitar:
e|------------------------------------------------------
b|------------------------------------------------------
g|------------------------------------------------------
d|-0-0--------0-0-------0-0--------0-0--1-1-1---0-0-----
a|-0-0--4-5-4-0-0-------0-0--4-5-4-0-0--1-1-1---0-0-----
D|-0-0--------0-0-------0-0--------0-0--1-1-1---0-0-----

guitar 2:
e|--------------------------
b|--------------------------
g|--------------------------
d|--------------------------
a|-6b8-------------8r6------
D|- s l o w   b e n d s-----
  
chorus

post chorus

chorus

post chorus

Outro
e|---------------------
b|---------------------
g|------10-------10----
d|-3h4--10--3h4--10---- x4
a|-3h4--8---3h4--8-----
D|-3h4------3h4--------

e|-----------
b|-----------
g|-----------
d|-x\---5----
a|-x\---5----
D|-x\---3----

g_r3v@hotmail.com
Comments