Primus - Jerry Was A Racecar Driver Chords & Tabs

 

Jerry Was A Racecar Driver Chords & Tabs

Primus Chords & Tabs

Version: 1 Type: Bass Tab 0 ratings
1 star 2 stars 3 stars 4 stars 5 stars
comments

Jerry Was A Racecar Driver Bass Tab

Artist: Primus
Song: Jerry was a Racecar driver

The way to play this song is kinda confusing for starting bassists
but you have to tap everything so that intially both of your hands
are on the fret board.
[ Tab from: http://www.guitartabs.cc/tabs/p/primus/jerry_was_a_racecar_driver_btab.html ]
Intro and Verse
G|--16-----18-----16-16-16------------|
D|--17-----17-----17-17-17--11h12h13--|
A|----12h11--12h11--------------------|
E|------------------------------------|

Chorus
G|---------------------------------------17-18-20--|
D|---------------------------------------17-18-20--|
A|-------------------------------------------------|
E|-------------------------------------------------|
B|--0S-3S-2p-0p-0S-5S-3p-2p-0p--0S---0S------------|

Comments