Primus - Jerry Was A Race Car Driver Chords & Tabs

 

Jerry Was A Race Car Driver Chords & Tabs

Primus Chords & Tabs

Version: 3 Type: Bass Tab 0 ratings
1 star 2 stars 3 stars 4 stars 5 stars
comments

Jerry Was A Race Car Driver Bass Tab

   
Artist: Primus
Song: Jerry Was a Racecar Driver
Tabbed by Lice
h=Hammer-on
p=Pull-off
/=Slide down
[ Tab from: http://www.guitartabs.cc/tabs/p/primus/jerry_was_a_race_car_driver_btab_ver_3.html ]
For 4 stringed bass
Intro/Main Riff:
G----17--------------19----------------17-17-17--------------------|
D----16--------------18----------------16-16-16------11h12h13------|
A---------h12p11-----------h12p11----------------------------------|
E------------------------------------------------------------------|

Riff 2:
G-----19-------------19--------------19-19-19-----13/-----|
D-----18-------------18--------------18-18-18-----13/-----|
A----------h12p11---------h12p11--------------------------|
E---------------------------------------------------------|

I canít tell what the rest is cuz itís with distortion.  So this is what I can give you
Comments