Primus - Here Come The Bastards Chords & Tabs

 

Here Come The Bastards Chords & Tabs

Primus Chords & Tabs

Version: 3 Type: Bass Tab 0 ratings
1 star 2 stars 3 stars 4 stars 5 stars
comments

Here Come The Bastards Bass Tab

-------------------------------------------------------------------------------
			     Here come the bastards - Primus
-------------------------------------------------------------------------------

Tabbed By : Hastenband
e-mail: bassistdavid@hotmail.com

Tuning: standard you could use a pick if ur gay or use ur thumb for this song
its really easy if u cant play it you must suck j/k

intro
G|--------------------------16-16-16-16/17-17\16-----------------------------|
D|-14-14-14-14/15-15\14-x2--14-14-14-14/15-15\14--x2-------------------------|
A|---------------------------------------------------------------------------|
E|---------------------------------------------------------------------------|
[ Tab from: http://www.guitartabs.cc/tabs/p/primus/here_come_the_bastards_btab_ver_3.html ]
chourus i think
G|---------------------------------------------------------------------------|
D|-9-9-9/10-10\9----10 10-10/11- 11\10-x2------repeat------------------------|
A|-7-7-7/8--8\7-x2--8--8--8 \9---9\8-----------------------------------------|
E|---------------------------------------------------------------------------|
bridge
G|---------------------------------------------------------------------------|
D|-9-9-9/10-10\9----10 10-10/11- 11\10-x2------repeat------------------------|
A|-7-7-7/8--8\7-x2--8--8--8 \9---9\8-----------------------------------------|
E|----------0----------------------0-----------------------------------------|

chourus i think
G|---------------------------------------------------------------------------|
D|-9-9-9/10-10\9----10 10-10/11- 11\10-x2------repeat------------------------|
A|-7-7-7/8--8\7-x2--8--8--8 \9---9\8-----------------------------------------|
E|---------------------------------------------------------------------------|

im pretty sure this is the whole song email me if u have questions
Comments