Primus - Heckler Chords & Tabs

 

Heckler Chords & Tabs

Primus Chords & Tabs

Version: 1 Type: Bass Tab 0 ratings
1 star 2 stars 3 stars 4 stars 5 stars
comments

Heckler Bass Tab

right first the little bit in during the guitar intro

g----12--------12-12/14-121212121212121214141414-16\-|
d-11--------11---------------------------------------|
a----------------------------------------------------|
e----------------------------------------------------|

then during the verse
[ Tab from: http://www.guitartabs.cc/tabs/p/primus/heckler_btab.html ]
g-9--11--10--10/14--12-9--9--11--10---------------|
d-------------------------------------------------|
a-------------------------------------------------|
e-------------------------------------------------|

chorus and bridge/solo

g---------------------------------------------------------|
d-------2------x------------------2------x-------5--------|
a----------------------7-------------------3h4-4---4------|
e-1p0-0---0--x---5h6-6---6--1p0-0---0--x------------------|
  s   s p s  s p s   s p s  s   s p s  s p s   s p s

tHa FuNk BaSsIsT
Comments