Primus - Harold Of The Rocks Chords & Tabs

 

Harold Of The Rocks Chords & Tabs

Primus Chords & Tabs

Version: 1 Type: Bass Tab 0 ratings
1 star 2 stars 3 stars 4 stars 5 stars
comments

Harold Of The Rocks Bass Tab

From: Primus8@aol.com
Date: Sun, 25 Jun 1995 11:34:29 -0400

__________________________________________________
--------------------------------------------------
"Harold Of The Rocks" from "Frizzle Fry"
__________________________________________________
--------------------------------------------------

[ Tab from: http://www.guitartabs.cc/tabs/p/primus/harold_of_the_rocks_btab.html ]
main riff
	 |-3-|
G-|--------------------|-
D-|*------------------*|-
A-|*------------------*|-
E-|--0hS-0-0-0---------|-

chorus riff 
	 |-3-|    V ^ V
G-|---------------9-8-7---|-
D-|*--------------9-8-7--*|-
A-|*--------------7-6-5--*|-
E-|--0hS-0-0-0------------|-

variant
	 |-3-|    V    V
G-|---------------9/10-10----|-
D-|*--------------9/10-10---*|-
A-|*--------------7/-8--8---*|-
E-|--0hS-0-0-0---------------|-


|---------------------------|
|*-------------------------*|
|*----------12-------------*|
|-11------------------------|


Comments