Primus - Golden Boy Chords & Tabs

 

Golden Boy Chords & Tabs

Primus Chords & Tabs

Version: 3 Type: Bass Tab 0 ratings
1 star 2 stars 3 stars 4 stars 5 stars
comments

Golden Boy Bass Tab

Artist: Primus
Song: Golden Boy
Album: Brown Album

When I play this with the song it sounds absolutely right.


Intro: strum
g|-9-9-9-9--9-9-9-7--9-9-9-9--7-7--10-10--|
d|-8-8-8-8--8-8-8-6--8-8-8-8--6-6---9--9--|
a|-9-9-9-9--9-9-9-7--9-9-9-9--7-7--10-10--|
e|----------------------------------------|
[ Tab from: http://www.guitartabs.cc/tabs/p/primus/golden_boy_btab_ver_3.html ]
Pre Verse: this can be played slapped.... but it sounds good enough if you
just pluck the strings hard.
	   Listen to the song for timing.
g|-14\-----------------------------7-7-----
d|-13\-------6h7----------6h7----------9---
a|-14\---6h7-----5-5--6h7-----6h7----------
e|-----------------------------------------

g|----------------------------------|
d|---------6h7------------6h7-----9-|
a|-----6h7-----5-6-7--6h7-----6h7---|
e|-7-7------------------------------|

Verse
g|-10--12\----10--12\----
d|--9--11\-----9--11\----
a|-10--12\----10--12\---- Repeat this a bunch of times
e|-----------------------

During guitar solo
g|-9-9-9-9--9-9-9-7--
d|-8-8-8-8--8-8-8-6--
a|-9-9-9-9--9-9-9-7-- Play a bunch of times.... then go back to pre verse.
e|-------------------

Thats it ... its a simple song, just figure out how many times to to play
the parts and the order , thats not too hard.
Comments