Primus - Final Voyage Of The Liquid Sky Chords & Tabs

 

Final Voyage Of The Liquid Sky Chords & Tabs

Primus Chords & Tabs

Version: 1 Type: Bass Tab 0 ratings
1 star 2 stars 3 stars 4 stars 5 stars
comments

Final Voyage Of The Liquid Sky Bass Tab

Intro
G--12h14---x-12-12h14-12----12------x-12-12h14-12----12-----|
D------------------------13----13-----------------13----13--|
A-----------------------------------------------------------|
E-----------------------------------------------------------|


G--------12h14p12----12--------------------------------------|
D--12h13----------13----13-12h13p12-12h13p12-----------------|
A--------------------------------------------12-12-12-12-12--|
E------------------------------------------------------------|

                     -- 3 --                 -- 3 ----------------------|
G--12h14--------12h14-12-12----12-------12h14-12-12-12----12------------|
D---------------------------13----13-------------------13----13-13-13---|
A-----------------------------------------------------------------------|
E-----------------------------------------------------------------------|

[ Tab from: http://www.guitartabs.cc/tabs/p/primus/final_voyage_of_the_liquid_sky_btab.html ]
G--------12h14p12----12--------------------------------------------------------|
D--12h13----------13----13-12h13p12--12h13p12----------------------------------|
A---------------------------------------------12-12-12-12-12---12-12-12-12-12--|
E------------------------------------------------------------------------------|

Verse
G-------------------------------|
D--x-----------x-----5h7--------|7]
A--------x---------x------------|
e----x-x---x-x---x--------------|

Pre-Chorus
G-------------------------------|
D----------7-----------7-(7)~~--|
A--0----------------------------|
E----x-x-5---5---x-x-x----------|

Chorus
G-----------------------------------------------------------------------------------------|
D--12----12----12----12/14----14----14----12-13-12-13-15~~-13-12-12h13p12----12----12-----|
A-----------------------------------------------------------------------------------------|
E-----10----10----10-------12----12----12---------------------------------10----10----10--|

G-------------|-------------------|---------|
D-------------|------x------------|---------|
A--0-0-0-0-0--|------------x------|--0-0-0--|
E-------------|--x-x---x-x---x-x--|---------|

G---------------------------------|
D--------7---5h7-----7-(7)~~------|
A--0------------------------------|
E----x-x---x-----x-x--------------|


GGGGoooood no?

I AM THE ANTIPOP!
Comments