Primus - Dmv Chords & Tabs

 

Dmv Chords & Tabs

Primus Chords & Tabs

Version: 2 Type: Tab 0 ratings
1 star 2 stars 3 stars 4 stars 5 stars
comments

Dmv Tab

   
#----------------------------------PLEASE NOTE---------------------------------#
#This file is the author's own work and represents their interpretation of the #
#song. You may only use this file for private study, scholarship, or research. #
#------------------------------------------------------------------------------##
#

From: cal woods E, A, D, G, B, E).

After the bass intro, play this 4 times:
Fig A:
|--------------------------|
|7------\6---\-------------|
|7------\6---\-------------|
|--------------------------|
|--------------------------|
|--------------------------|

Then this 4 times:
Fig B:
|10-10-10-10-10-10-10-10-10-10-10-10-10-10-10-10-|10------|
|-9--9--9--9--9--9--9--9--9--9--9--9--9--9--9--9-|-9------|
|------------------------------------------------|--------|
|------------------------------------------------|--------|
|------------------------------------------------|--------|
|------------------------------------------------|--------|

Fig C:
Keep bending this note for 4 bars:
|-------------------------------------------------------|
|-------------------------------------------------------|
|-------------------------------------------------------|
|-------------------------------------------------------|
|--------4-b(5)-r(4)-b(5)-r(4)-b(5)-etc.----------------|
|-------------------------------------------------------|
b =3D bend the string so it sounds like the fret in brackets.
r =3D release the bend.
[ Tab from: http://www.guitartabs.cc/tabs/p/primus/dmv_tab_ver_2.html ]
Play figure A one time, then this:
|----------------|----------------|--------------|
|7---------------|----------------|--------------|
|7---------7-6-5-|6-7-8-7-6-5-6-7-|6-------------|
|----------------|----------------|--------5\----|
|----------------|----------------|--------------|
|----------------|----------------|--------------|

Play figure B four times.

Keep bending figure C for eight bars.

|----------------|----------------|----------------|----------------|
|------7-6-------|----------7-6---|------------7-6-|7-8-8-7-6-------|
|----7-------6---|--------7-----6-|--------7-------|------------8---|
|6---------------|5---6-----------|5---6-----------|----------5---5-|
|----------------|----------------|----------------|----------------|
|----------------|----------------|----------------|----------------|

Play figure A four times.

|----------------|----|----------------|----------------|
|------------7-6-|----|------------7-6-|7---8-9-8-7-6---|
|7---------------|6---|7---------------|--------------6-|
|----------------|----|----------------|----------------|
|----------------|----|----------------|----------------|
|----------------|----|----------------|----------------|

Play figure B four times.

Keep bending figure C for eight bars (with crescendo).

|-----|-----|-------|----------------|----|----------------|
|-----|-----|-------|----------------|----|----------------|
|(7)--|(7)--|(7)----|----8-7-6-5-----|----|--7-8-9-8-7---7-|
|-----|-----|-------|------------5-6-|6---|------------5---|
|-----|-----|-------|----------------|----|----------------|
|-----|-----|-------|----------------|----|----------------|

|----------------|------|---------------|----|------------|
|----------------|------|---------------|----|------------|
|----------------|(7)---|(7)-----7-8-8-7|7---|7---8-8-8\--|
|6---5-4---------|------|---------------|----|------------|
|--------5-------|------|---------------|----|------------|
|----------------|------|---------------|----|------------|

Play figure B four times.

Keep bending figure C for eight bars.

GOOD LUCK!
Comments