Primus - Dmv Chords & Tabs

 

Dmv Chords & Tabs

Primus Chords & Tabs

Version: 1 Type: Tab 1 rating
1 star 2 stars 3 stars 4 stars 5 stars
comments

Dmv Tab

DMV
Primus 
Pork Soda 
Track #5


h =hammer on
p =pull off
b =bend string up
r =release bend
/ =slide up
 =slide down
v =vibrato
w =whammy



Intro/riff#1:
e------------------------------------------------------------
B------6-------6-------6-------6-------------------------
G--/7--6---/7--6---/7--6---/7--6-------------------------
D--/7--6---/7--6---/7--6---/7--6-------------------------
A------------------------------------------------------------
E------------------------------------------------------------


Repeat as necessary.
Verse:
e--10-10-10-10-10-10-10-10-10-10-10-10-10-10-10-10-10-10-----
B--9--9--9--9--9--9--9--9--9--9--9--9--9--9--9--9--9--9------
G------------------------------------------------------------
D------------------------------------------------------------
A------------------------------------------------------------
E------------------------------------------------------------


e--10-------------------------------------------------------
B---9-------------------------------------------------------
G------------------------------------------------------------
D----------5brbrbrbrbrbrbrbrbrbrbrbrbr----------------------
A----------4brbrbrbrbrbrbrbrbrbrbrbrbr----------------------
E------------------------------------------------------------



Riff#2:                              v
e------------------------------------------------------------
B------6----------------------------------------------------
G--/7--6--/7--7-6-5-6-7-8-7-6-5-6-7-6----4------------------
D--/7--6--/7---------------------------5--------------------
A------------------------------------------------------------
E------------------------------------------------------------

Play verse.

Bridge#1:
e------------------------------------------------------------
B-------7-6---------7-6---------7-6-7/8-8-7------------------
G------7----6------7---6-----6--------------7---7------------
D--/6----------5-6-------5-6------------------5---5----------
A------------------------------------------------------------
E------------------------------------------------------------

Play intro/riff#1.
[ Tab from: http://www.guitartabs.cc/tabs/p/primus/dmv_tab.html ]
Bridge#2:
   v       v      v
e------------------------------------------------------------
B------7-6------------7-6-7--8-9-8-7-6-----------------------
G--7-------6---6--7--------------------4---------------------
D------------------------------------------------------------
A------------------------------------------------------------
E------------------------------------------------------------


Play verse, but add this to the secong part of the riff,
repeating as necessary:
e------------------------------------------------------------
B------------------------------------------------------------
G------------------------------------------------------------
D--5brbrbrbrbrbr----5brbrbrbrbrbr----------------------------
A--4brbrbrbrbrbr----4brbrbrbrbrbr----------------------------
E--3brbrbrbrbrbr----3brbrbrbrbrbr----------------------------


Bridge#3:
   v>      v               v
e------------------------------------------------------------
B------------------------------------------------------------
G--7-----7-7---8-7-6-5-----7---7-8-9-8-7---7-----------------
D--6-----6-6-----------5/6-6-------------5-6---6-6-5---------
A--5---5---------------------------------------------8-5-----
E--------------------------------------------------------3---


e------------------------------------------------------------
B------------------------------------------------------------
G--7---6--7---7/8-8--7w--7-8-8-8----------------------------
D--6---5--6---6/7-7--6w--6-----7----------------------------
A--5---4--5---5/6-6--5w--5-----6----------------------------
E--4---------------------------------------------------------

Play verse.

The song ends with a guitar solo made up mostly of noise.
There are a few notes you can hit, use your whammy alot.

e--------------------13w-------------------------------------
B--13w---14w---12w---13w--------------------------------13---
G--12w---13w---11w---12w---11w---15p14-15p14h15------11------
D--13w---14w---12w---13w---10w--------------------10---------
A--------------------------12w-------------------------------
E------------------------------------------------------------ 

Itlof
Comments