Primus - Del Davis Tree Farm Chords & Tabs

 

Del Davis Tree Farm Chords & Tabs

Primus Chords & Tabs

Version: 1 Type: Bass Tab 0 ratings
1 star 2 stars 3 stars 4 stars 5 stars
comments

Del Davis Tree Farm Bass Tab

This is a much better version of Del Davis Tree Farm by Primus than what was 
on the BTB. Everything is slapped or strummed using flamenco style.

Intro: x2

G-|--------------------|
D-|--------------------|
A-|--------------------|
E-|----5-7-7---5-7-7---|
B-|--------------------|

Verse: x2                                        x1          x1
[ Tab from: http://www.guitartabs.cc/tabs/p/primus/del_davis_tree_farm_btab.html ]
G-|----------16-16---------14-17---------16-16--|-------|---------|
D-|----------16-16---------14-17---------16-16--|-------|---------|
A-|---------------------------------------------|-------|---------|
E-|---------------------------------------------|-------|--8------|
B-|--0-x-x-0-------0-x-0-0-------0-x-0-x--------|--3/7--|----7\3--|


Chorus: x4                  After Chorus

G-|--19/20-20-19/20-20-22-|--16---|-16-16-16-16-16--|
D-|--19/20-20-19/20-20-22-|-------|-----------------|
A-|-----------------------|-------|-----------------|
E-|-----------------------|-------|-----------------|
B-|-----------------------|-----0-|-----------------|

Bridge: x4
              (rest)
G-|--------7--------------7---------8-10-|
D-|--------7--------------7---------8-10-|
A-|--------------------------------------|
E-|--------------------------------------|
B-|--0-x-x---x------0-x-x---0-x-x-x------|

Any questions/comments can be sent to tlondon33@hotmail.com

Comments