Primus - De Anza Jig Chords & Tabs

 

De Anza Jig Chords & Tabs

Primus Chords & Tabs

Version: 3 Type: Bass Tab

De Anza Jig Bass Tab

Primus sucks! So heres my attempt at De Anza Jig. Its pretty damn close too.
Learn more primus, its good for your soul. Have fun with this!

G ------------------------------------------------------
D ------------------------------------------------------
A --(2)3-----3--(x)3-----3--(0h3-----3--(0)3-----3------
E --------3-----3-----3-----3-----3-----3-----3-----3---

G ---------------9999-7-------9999-7--------------------
D ------------10--------10-----------10-----------------
A -------7-10--------------10-----------10-5-5-7p5------
E -----8------------------------------------------------

[ Tab from: http://www.guitartabs.cc/tabs/p/primus/de_anza_jig_btab_ver_3.html ]
G --------------9999-7------------9-7-5-5---------------
D -----------10--------10-----10----------7-5-5---------
A ------7-10--------------10--------------------7-5-----
E --7-8---------------------------------------------7-8-
		
G -------------------------------------------
D -------------------------------------------
A ----3-----3-----3-----3--------------------
E -3-----3-----3-----3-----3-----------------

G -------------------------------------------
D 2-----2-----------------2-----2--5---------
A --3-----3--5--5--3--------3--------5-------
E -----------------2-----------------3-------


G ------------9999-7-----------9-7----------------------
D ---------10--------10---10-------10-10-7-5-7-7--------
A ----7-10--------------10-----------------------7-5----
E -78------------------------------------------------8--

G ---------------9-7-------------------------
D -------------------10-10-7-5-7-------------
A -3-----3-----------------------7-5---------
E ----3------------------------------8-------

G ---------------9-7-------------------------
D -------------------10-10-7-5-7-------------
A -3-----3-----------------------7-5---------
E ----3------------------------------8-------

drunk