Primus - Captain Shiner Chords & Tabs

 

Captain Shiner Chords & Tabs

Primus Chords & Tabs

Version: 1 Type: Bass Tab 0 ratings
1 star 2 stars 3 stars 4 stars 5 stars
comments

Captain Shiner Bass Tab

"Captain Shiner" by Primus
Bass Tablature by Dan Reynolds (prkchop@agora.rdrop.com)


This song is _very_ reminiscent of "De Anza Jig," but it's a little 
different, so I decided to TAB it out.


---------------------------
---------------------------  <----Repeat a few times
--3-----3---4--3-----------
-----3-----3---------------


The cool part:

[ Tab from: http://www.guitartabs.cc/tabs/p/primus/captain_shiner_btab.html ]
------4--5--7--9999--7--5-----9999---7--5-------------------------------------
---5-----------------------5---------------5----------------------------------
----------------------------------------------5--5--7--5----------------------
------------------------------------------------------------------------------


------4--5--7--9999--7--5-----9--7--5--5--------------------
---5-----------------------5--------------7--5--5-----------
---------------------------------------------------5--7--3--
------------------------------------------------------------


And then it's back to the first part. 

Comments