Primus - Antipop Chords & Tabs

 

Antipop Chords & Tabs

Primus Chords & Tabs

Version: 1 Type: Tab 0 ratings
1 star 2 stars 3 stars 4 stars 5 stars
comments

Antipop Tab

   
Primus
Anti Pop

Tuning-d a d g b e 

Intro
E--------------------------------------
B--------------------------------------
G--------------------------------------
D-7-4--4-10----7-4-----7-4--4-10---7-4-
A-7-4--4-10----7-4-----7-4--4-10---7-4-
D-7-4--4-10----7-4-----7-4--4-10---7-4-

fIGURE 1
E-------------------------
B-------------------------
G-------------------------  this part is at 1:27
D-4-4--4-4--4-4--4-4--4-4- -4-4--4-4--4-4-
A-4-4--4-4--4-4--4-4--4-4- -4-4--4-4--4-4-
D-4-4--4-4--4-4--4-4--4-4- -4-4--4-4--4-4-
[ Tab from: http://www.guitartabs.cc/tabs/p/primus/antipop_tab.html ]
Figure 2 
E--------------------------------------------
B--------------------------------------------
G--------------------------------------------
D--4444444-777777777-8-7-8-7--44444444444-10^
A--------------------------------------------
D--------------------------------------------

E---------------------------------------------------
B---------------------------------------------------
G---------------------------------------------------
D--4444444-777777777-8-7-8-7--44444444444--222222222
A---------------------------------------------------
D---------------------------------------------------

Chorus
E-----------------------------------
B---7-7/-10--7-7-10-11-10-11--------
G-----------------------------------
D-----------------------------------
A-----------------------------------
D-----------------------------------

Ending 
D--7-4-----
A--7-4-----
D--7-4-----
Comments