Primus - Antipop Chords & Tabs

 

Antipop Chords & Tabs

Primus Chords & Tabs

Version: 2 Type: Bass Tab 0 ratings
1 star 2 stars 3 stars 4 stars 5 stars
comments

Antipop Bass Tab

here
  +Antipop - Primus
  +tabbed by Neal Conway - damnsaxon@aol.com
  +re-tabbbed by Vic Holmlund - vholmlund@hotmail.com
--------------------------------------------
     
--------------------------------------------
 key: 
 + = thump
 ^ = pop
 h = hammer on

  Intro
   +  +         +  +   ^
g ------------------------
d ------------------------
a -0------------0------3-- 
e ----2------------2------
 
 
 Intro Var II:
   +   ^ +    +   ^ +    +   ^ +  ^ +  + ^ ^ ^ ^ 
g --------------------------------2------5-5-5-5--
d ----------------------------------4--4----------
a -----3----------3----------3-------------------- 
e -0h2---2----0h2---2----0h2---2------------------

  Transition:
   + +    + +    + +    + +
g ---------------------------
d ---------------------------
a --------------------------- 
e -2-2----2-2----2-2----2-2--
  
  Chorus:
    +   +   ^    +   +   ^    +   +   ^    +   +   ^ ^ ^
g ----------2------------2------------2------------2-3-2--
d --------------------------------------------------------
a --------------------------------------------------------
e --0h2-0h2------0h2-0h2------0h2-0h2------0h2-0h2--------

  Verse:
    +   +     +   +     +   +     +   +   
g -----------------------------------------
d -----------------------------------------
a -----------------------------------------
e --0h2-0h2---0h2-0h2---0h2-0h2---0h2-0h2--
  
  Verse VarI:
   +   +    +   +    +   +    +   +    +   +    +   +       
g -----------------------------------------------------------------
d -----------------------------------------------------------------
a -0h2-0h2--0h2-0h2--0h2-0h2--0h2-0h2--2h4-2h4--2h4-2h4--3-3-3-3---
e -----------------------------------------------------------------
[ Tab from: http://www.guitartabs.cc/tabs/p/primus/antipop_btab_ver_2.html ]
 Intro Var III: 
   + + ^ +    + + ^ +    + + ^ +    + + ^ +
g ----------------------------------------------------
d ----------------------------------------------------
a -----3----------3----------3----------3-------------
e -0h2---2----0h2---2----0h2---2----0h2---2-----------

  Intro Var IV:
   + + ^ +    + +  ^  +     + +  ^  +     + +  ^  +     
g --------------------------------------------------------------
d --------------------------------------------------------------
a -----3-----------15------------15------------15--------------
e -0h2---2----0h14----14----0h14----14----0h14----14----14/\/\-

  Intro Var V:
   + + ^ +    + + ^ +    + + ^ +    + + ^ +
g --------------------------------------------------------------
d -----3----------3----------5----------6-----------------------
a -0h2---2----0h2---2----2h4---4----3h5---5--7--5--7/9----------
e --------------------------------------------------------------

  Outro:
    +   +   ^ ^  +   +   ^ ^  +   +   ^ ^  +   +   ^ ^
g ----------2-2----------2-2----------2-2----------2-3----
d --------------------------------------------------------
a --------------------------------------------------------
e --0h2-0h2------0h2-0h2------0h2-0h2------0h2-0h2--------

riff order:
Intro          5x 
Intro Var II   2x
Transition     1x
Chorus         4x
Verse          4x
Verse Var I    1x
Chorus         6x
Verse          4x
Verse Var I    1x
Chorus         8x
Intro          2x
Intro Var III  2x
Intro Var IV   2x
Intro Var III  2x
Intro Var V    1x
Chorus         8x
Outro          4x
end it with the first two notes of the intro.

-this isn't as hard as it seems...get to know the song, and it'll come to
you very quickly.  les claypool is a god when it comes to bass playing...
he adds lots of little fills and stuff that i didn't tab because that's 
where you get to add your own little style.  have fun.
Comments