Primitive Reason - Day Will Come Chords & Tabs

 

Day Will Come Chords & Tabs

Primitive Reason Chords & Tabs

Version: 1 Type: Bass Tab 0 ratings
1 star 2 stars 3 stars 4 stars 5 stars
comments

Day Will Come Bass Tab

Primitive Reason
The day will come
Some of us
 tabbed by Nelson Vassalo

G-------------|
D----7-----4--|
A--5---5-4--4-|
E-------------|

G-------------------------------------|
D------7-----4---------------7-----4--|
A----5---5-4--4-5-0-4-40-4-5---5-4--4-|
E-------------------------------------|
[ Tab from: http://www.guitartabs.cc/tabs/p/primitive_reason/day_will_come_btab.html ]
G-----------------------------------|
D------7-----4-------------7-----4--|
A----5---5-4--4-5-0-4-40------------|
E-----------------------------------|

G------------------------|
D------------------------|
A------------------------|
E---9-9--10-10--9-9--7-7-|

x4
G-----------------------------------|
D------7-----4-------------7-----4--|
A----5---5-4--4-5-0-4-40------------|
E-----------------------------------|

G--------------------------------|
D-----7--------7-----------------|
A---7---7----7---5---------------|
E-5--------5---------------------|
Comments