Primer 55 - Tripinthehead Chords & Tabs

 

Tripinthehead Chords & Tabs

Primer 55 Chords & Tabs

Version: 2 Type: Tab 0 ratings
1 star 2 stars 3 stars 4 stars 5 stars
comments

Tripinthehead Tab

Song: “Tripinthehead”
Artist: Primer 55
Album: Introduction To Mayhem
Transcribed By: Bryan Bramlett (bryanmb87@aol.com)

Tuning: 1/2 Step Down, Drop D

BRIDGE:
|---------------------------------------------------|---------|
|---------------------------------------------------|---------|
|---------------------------------------------------|---------|
|-0------0------8--0------0------8--0------0------8-|-8-8-8-8-|
|-0--0-0-0--0-0-8--0--0-0-0--0-0-8--0--0-0-0--0-0-8-|-8-8-8-8-|
|-0--0-0-0--0-0-8--0--0-0-0--0-0-8--0--0-0-0--0-0-8-|-8-8-8-8-|
PM   . .    . .       . .    . .       . .    . .

VERSE:
|------------------|
|------------------|
|------------------|
|-12-11-10-9-11h12-|
|------------------|
|------------------|
[ Tab from: http://www.guitartabs.cc/tabs/p/primer_55/tripinthehead_tab_ver_2.html ]
CHORUS:
|-----------------|
|-----------------|
|-----------------|
|-0-1-2-3-4-3-2-1-|
|-0-1-2-3-4-3-2-1-|
|-0-1-2-3-4-3-2-1-|

INTERLUDE: (guitar 1)
|-------------------------------|
|-------------------------------|
|-------------------------------|
|-3--0--3--0--3--0--3--0--3-2-1-|
|-3--0--3--0--3--0--3--0--3-2-1-|
|-3--0--3--0--3--0--3--0--3-2-1-|

INTERLUDE: (guitar 2) (w/ effect)
|---------------------------------|
|---------------------------------|
|---------------------------------|
|-7-7-7-6-6-6-5-5-5-4-4-4-3-3-3-3-|
|---------------------------------|
|---------------------------------|
PM  . .   . .   . .   . .   .   .

INTERLUDE 2:
|---------------------------|
|---------------------------|
|---------------------------|
|-0-0--0-0--0-0--0-0--0-0-3-|
|-0-0--0-0--0-0--0-0--0-0-3-|
|-0-0--0-0--0-0--0-0--0-0-3-|
PM     . .  . .  . .  . .
Comments