Primer 55 - Tricycle Chords & Tabs

 

Tricycle Chords & Tabs

Primer 55 Chords & Tabs

Version: 2 Type: Bass Tab 0 ratings
1 star 2 stars 3 stars 4 stars 5 stars
comments

Tricycle Bass Tab

Aight, here is the intro and verse to the song Tricycle. I am 98 percent sure this is how it goes, cuse I 
bobby playin it this way on the guitar, so I figured, whatever. Neway, here is the intro and verse on base 
the song Tricycle by Primer 55

If a note is in  parentheses, bend it
[ Tab from: http://www.guitartabs.cc/tabs/p/primer_55/tricycle_btab_ver_2.html ]
G:--------------------------------------------------------------------------|
D:--------------------------------------------------------------------------|
A:----------7-8-(7)---------7-----------------7-8-(7)------------7----------|
E:-7-7-10----------7-7-10-----10----7-7-10----------------7-7-10---10-------|

That?s pretty much it for the verse and intro, sometimes the bassist will do a little scale fill, and 
how that goes

G:--------------------------------------------------------------------------|
D:--------------------------------------------------------------------------|
A:-------7-8-7--------------------------------------------------------------|
E:-7-10--------10-7---------------------------------------------------------|

And that?s about it, email me with ne corrections at fvfever@hotmail.com, I was too lazy to figure out the 
sorry. But it?s a cool song by a cool band.
Comments