Primer 55 - Supa Freak Love Chords & Tabs

 

Supa Freak Love Chords & Tabs

Primer 55 Chords & Tabs

Version: 2 Type: Bass Tab 0 ratings
1 star 2 stars 3 stars 4 stars 5 stars
comments

Supa Freak Love Bass Tab

Song: Supa Freak Love
Artist: Primer 55
Album: Introduction to Mayhem
Tabbed By: Boone (boone69reb@icqmail.com)
 
I saw that this song was not on the archive so I decided that I would tab it.
 
Dropped D tuning
 
intro/chorus:
G-------------------------------------
D-------------------------------------
A-------------------------------------
D--0-1-2-1-0-2-0-----------------
 
verse:
G-------------------------------------
D-------------------------------------
A-------------------------------------
D--0-1-2-1-0-2-0-----------------
 
G-------------------------------------
D-----------------2-0---------------
A-------------------------------------
D--0-1-2-1-0----------------------
 
bridge:  (Supa Freak, Supa Freak.......)
G-------------------------------------
D-------------------------------------
A-------------------------------------
D--9-8-7--7-6-5------------------

[ Tab from: http://www.guitartabs.cc/tabs/p/primer_55/supa_freak_love_btab_ver_2.html ]
Comments