Primer 55 - Set It Off Chords & Tabs

 

Set It Off Chords & Tabs

Primer 55 Chords & Tabs

Version: 3 Type: Tab 0 ratings
1 star 2 stars 3 stars 4 stars 5 stars
comments

Set It Off Tab

Primer 55: Introduction to Mayhem: Set it off
Tuning: Down 1/2 step, drop D
Tabbed By:kbbxt@maristb.marist.edu

Altered a tad by: MaT conduit4@juno.com
http://www.angelfire.com/ma3/primer55

fig1a
1|------------------|
2|------------------|
3|------6-------6---|
4|-5-6-----6-5------|
5|------------------|
6|------------------|

fig1b		ph
1|------------------|
2|------------------|
3|------6-------6^--|
4|-5-6-----6-5------|
5|------------------|
6|------------------|

fig2a
1|-------------------------|
2|-------------------------|
3|-8---8-8--8--7---7-7--7--|
4|-8---8-8--8--7---7-7--7--|
5|-6---6-6--6--5---5-5--5--|
6|-------------------------|

fig2b
1|------------------------------------|
2|------------------------------------|
3|-8---8-8--8--7---7---7---8---8---8--|
4|-8---8-8--8--7---7---7---8---8---8--|
5|-6---6-6--6--5---5---5---6---6---6--|
6|------------------------------------|

fig2c
1|-------------------------|
2|-------------------------|
3|-7---7-7--7--8---8-8--8--|
4|-7---7-7--7--8---8-8--8--|
5|-5---5-5--5--6---6-6--6--|
6|-------------------------|
[ Tab from: http://www.guitartabs.cc/tabs/p/primer_55/set_it_off_tab_ver_3.html ]
fig2d
1|------------|
2|------------|
3|-7---7---7--|
4|-7---7---7--|
5|-5---5---5--|
6|------------|

fig3a
1|---------------------|
2|---------------------|
3|---------------------|
4|-0--1--2--3--2--x-x--|
5|-0--1--2--3--2--x-x--|
6|-0--1--2--3--2--x-x--|

fig3b           pm***
1|---------------------|
2|---------------------|
3|---------------------|
4|-0--1--2--3---3-2-1--|
5|-0--1--2--3---3-2-1--|
6|-0--1--2--3---3-2-1--|

fig3c
1|---------------------|
2|---------------------|
3|---------------------|
4|-0--1--2--3--2-------|
5|-0--1--2--3--2-------|
6|-0--1--2--3--2-------|

fig3d
1|---------------------|
2|---------------------|
3|---------------------|
4|---------------------|
5|---------------------|
6|-0--1--2--3--2-------|

fig4a  pm****
1|-------------|
2|-------------|
3|-------------|
4|-0---0-0--0--|
5|-0---0-0--0--|
6|-0---0-0--0--|

fig4b              pm****
1|-------------------------|
2|-------------------------|
3|-------------------------|
4|-1---1-1--1--0---0-0--0--|
5|-1---1-1--1--0---0-0--0--|
6|-1---1-1--1--0---0-0--0--|

fig4c
1|------------------------|
2|------------------------|
3|------------------------|
4|-1---1-1--1--0---0---0--|
5|-1---1-1--1--0---0---0--|
6|-1---1-1--1--0---0---0--|
Comments