Primer 55 - Lou Evil Chords & Tabs

 

Lou Evil Chords & Tabs

Primer 55 Chords & Tabs

Version: 1 Type: Tab 0 ratings
1 star 2 stars 3 stars 4 stars 5 stars
comments

Lou Evil Tab

   
        BITCHIN' TABS

          URL: www.angelfire.com/goth/btab/
	EMAIL: btabmaster@hotmail.com

        THIS IS AN EXCLUSIVE TAB TO "BITCHIN' TABS"

 ----------------------------------------------------------------------------------------------

	     SONG: Lou Evil
	     BAND: Primer 55
	    ALBUM: (the) New Release
   TRANSCRIBED BY: Chris Frazier (btabmaster@hotmail.com)
	     DATE: 08-08-2K1

 ----------------------------------------------------------------------------------------------

	TUNING: Drop D and down 1/2 step (Db Ab Db Gb Bb Eb)

     Riff 1:
    Eb|---------------------------------|
    Bb|---------------------------------|
    Gb|---------------------------------|
    Db|-5-4-5-4-5-4-5-4-5-4-0-4-5-4-0-4-|
    Ab|---------------------------------|
    Db|---------------------------------|
[ Tab from: http://www.guitartabs.cc/tabs/p/primer_55/lou_evil_tab.html ]
     Riff 2:
    Eb|-------------------------|
    Bb|-------------------------|
    Gb|-----------------666-7-7-|
    Db|-5-4-5-4-5-4-5-4-666-7-7-|
    Ab|-----------------444-5-5-|
    Db|-------------------------|

     Riff 3:
    Eb|------------------|
    Bb|------------------|
    Gb|------------------|
    Db|-5--5-5-4-0----/8-|
    Ab|-------------4----|
    Db|------------------|

     Riff 4:
    Eb|-----------------------|
    Bb|-----------------------|
    Gb|-------------6-6-6-7-7-|
    Db|-5--5-5-4-0--6-6-6-7-7-|
    Ab|-------------4-4-4-5-5-|
    Db|-----------------------|

     Riff 5:
    Eb|-------------|
    Bb|-8----/11-/6-|
    Gb|-------------|
    Db|-------------|
    Ab|-------------|
    Db|-------------|

     Riff 6:
    Eb|------------------|
    Bb|-8----/11---------|
    Gb|----------666-7-7-|
    Db|----------666-7-7-|
    Ab|----------444-5-5-|
    Db|------------------|

     Riff 7:
    Eb|-----------|
    Bb|-----------|
    Gb|-7---/9-/6-|
    Db|-7---/9-/6-|
    Ab|-5---/7-/7-|
    Db|-----------|

     Solo is just a variation of the x577xx chord w/ a few octave changes in there (wah)

Comments