Primer 55 - Lou Evil Chords & Tabs

 

Lou Evil Chords & Tabs

Primer 55 Chords & Tabs

Version: 1 Type: Bass Tab 0 ratings
1 star 2 stars 3 stars 4 stars 5 stars
comments

Lou Evil Bass Tab

Artist: Primer 55
Song: Lou Evil
From: (the)New Release
Tabbed By: Me silly

Intro
Gb|-------|
Db|-------|
Ab-------|            7x
Db|---5-4|

Gb|----------------------|
Db|----------------------|
Ab-----------4-4-4-5-5-|            1x
Db|---5-4---------------|
[ Tab from: http://www.guitartabs.cc/tabs/p/primer_55/lou_evil_btab.html ]
Verse/Chorus
Gb|------------------|
Db|-5--5-5-4-0----/8-|
Ab|-------------4----|                  3x
Db|------------------|

Gb|-----------------------------------|
Db|--5--5-5-4-0----\8---------------|
Ab---------------4-------------------|            1x
Db|-----------------------4-4-4-5-5-|

Bridge
Gb|------------|
Db|------------|
Ab|-5----/7-/7-|
Db|------------|
Comments