Primer 55 - Hate Chords & Tabs

 

Hate Chords & Tabs

Primer 55 Chords & Tabs

Version: 2 Type: Tab 0 ratings
1 star 2 stars 3 stars 4 stars 5 stars
comments

Hate Tab

Primer 55
Hate
Tabbed by: Pat
Email: fafara_rascon@hotmail.com

|-5--------|----7-------5--------|------------------|--------------------------|
|-5--------|----5-------5--------|------------------|--------------------------|
|-5--------|----5-------5--------|---x-x-x-x-x-x----|--------------------------|
|----------|---------------------|---x-x-x-x-x-x----|--------------------------|
|----------|---------------------|------------------|--------------------------|
|----------|---------------------|------------------|--------------------------|


|-------|-------------|--------------------------------------|-----------------|
|-------|-------------|--------------------------------------|-----------------|
|-------|-------5-----|-----5-7*-5---------5-----------------|-----------------|
|---5h7-|-5h6h7---7---|-5h7---------7--5/7---7------5-5-5h7--|-----------------|
|-------|-------------|---------------------------/7---------|-----------------|
|-------|-------------|--------------------------------------|-----------------|
                             *full step (2 frets) bend
[ Tab from: http://www.guitartabs.cc/tabs/p/primer_55/hate_tab_ver_2.html ]
|-------|----------------|----------------------------------------------------|
|-------|----------13----|-----------13-15*-13----------13--------------------|
|-7/14--|-12h13h14----14-|--12h13h14-----------14-12/14----14-----12-12-12h14-|
|-------|----------------|-------------------------------------/14------------|
|-------|----------------|----------------------------------------------------|
|-------|----------------|----------------------------------------------------|


|---------|--------------|--------|-------------|-------|-------------|-------|
|---------|-----------5--|--------|-------------|-------|-----------5-|-------|
|----5\4--|---5\4-7--5---|----5\4-|---5\4-7-5-4-|---5\4-|---5\4-7--5--|---5\4-|
|---------|--------------|--------|-------------|-------|-------------|-------|
|--5------|-5------------|--5-----|-5-----------|-5-----|-5-----------|-5-----|
|---------|--------------|--------|-------------|-------|-------------|-------|


|-0-------------|
|-0-------------|
|-7-------------|
|-7-------------|
|-5-------------|
|---------------|

|---------------------|
|---------------------|
|---------------------|
|-7-7-7-7-7-x-x-x-x---|
|-7-7-7-7-7-x-x-x-x---|
|-5-5-5-5-5-x-x-x-x---| thats the chorus over and over agian

sorry no solo =/
Comments