Primer 55 - Dose Chords & Tabs

 

Dose Chords & Tabs

Primer 55 Chords & Tabs

Version: 2 Type: Tab 0 ratings
1 star 2 stars 3 stars 4 stars 5 stars
comments

Dose Tab

----------------------------------------------------
			    DOSE    PRIMER55
-------------------------------------------------------------------------------

Tabbed by:bob sheriff

Tuning:
                      intro/verse
e|---6--------6-----6---------6-----6---------6-----6------------------------|
B|---------------------------------------------------------------------------|
G|---3--------3-----3---------3-----3---------3-----3------------------------|
D|---------------------------------------------------------------------------|
A|0-0--0-0-0-0--0-0---0-0-0-0---3-3---3-3-3-3---5-5---5-5-5^6--6^5-----------|
E|0-0--0-0-0-0--0-0---0-0-0-0---3-3---3-3-3-3---5-5---5-5-5^6--6^5-----------|

e|----6---------6-----6---------6-----6---------6-----6---------------------|
B|--------------------------------------------------------------------------|
G|----3---------3-----3---------3-----3---------3-----3---------------------|
D|--------------------------------------------------------------------------|
A|0-0---0-0-0-0---0-0---0-0-0-0---3-3---3-3-3-3---5-5---6-6-6^6--6^5--------|
E|0-0---0-0-0-0---0-0---0-0-0-0---3-3---3-3-3-3---5-5---5-5-5^6--6^5--------|
[ Tab from: http://www.guitartabs.cc/tabs/p/primer_55/dose_tab_ver_2.html ]
e|----------------------------------------------------------------|
B|----------------------------------------------------------------|
G|0---------------------------------------------------------------|
D|0----------------------12-----3-0h3-5-5^6--5^6------------------|2x
A|0-14p12-14p12-14p12-14----14--3-0h3-5-5^6--6^5------------------|
E|0-----------------------------3-0h3-5-5^6--6^5------------------|
             
e|---------------------------------------------------------------------------|
B|---------------------------------------------------------------------------|
G|---------------------------------------------4------4^-4-p-2---2-----------|
D|0-2-0-2-0-2-0-2-0-3-3-3--0-------------------4---------------4-------------|
A|0-2-0-2-0-2-0-2-0-3-3-3--0-------------------2-----------------------------|
E|0-2-0-2-0-2-0-2-0-3-3-3--0-------------------------------------------------|
   dose on me               somebody help me im falling apart at the seams 
e|---------------------------------------------------------------------------|
B|---------------------------------------------------------------------------|
G|------------------------------------------------4----------4^-4p2--2-------|
D|0-2-0-2-0-2-0-2-0-3-3-3--0----------------------2-----------------4--------|
A|0-2-0-2-0-2-0-2-0-3-3-3--0----------------------2--------------------------|
E|0-2-0-2-0-2-0-2-0-3-3-3--0-------------------------------------------------|
                            my only salvation is a drug called L.S.D
Comments