Primer 55 - Dose Chords & Tabs

 

Dose Chords & Tabs

Primer 55 Chords & Tabs

Version: 2 Type: Bass Tab 0 ratings
1 star 2 stars 3 stars 4 stars 5 stars
comments

Dose Bass Tab

   
Song: Dose
Band: Primer55
Album: Introduction To Mayhem
Tabbed by: Kevin (Espy333@aol.com)
*************************************

Intro
G--------------------------------------------|
D-----------11------------------11-----------|
A---11-9-11----9-11-----11-9-11----9-11-10-9-|
D-0-------------------0----------------------|
[ Tab from: http://www.guitartabs.cc/tabs/p/primer_55/dose_btab_ver_2.html ]
Verse
G-----------------------------------------------------|
D-----------------------------------------------------|
A-----------------------------------------------------|
D-0-0-0-00--0-0-0-00-0-0-3-3-3-33-3-3-5-5-5/6-6-5-5---|

Chorus
G------------------------|
D------------------------|
A------------------------|
D-0-1-0-1-0-1-0-1-2-2-2-2|

Comments