Primer 55 - Big Fuck You Chords & Tabs

 

Big Fuck You Chords & Tabs

Primer 55 Chords & Tabs

Version: 1 Type: Bass Tab 0 ratings
1 star 2 stars 3 stars 4 stars 5 stars
comments

Big Fuck You Bass Tab

The Big *** You
Off of Introduction to Mayhem
Tabbed by: XbIlAdUdEx

intro clean
-------------------------------
-------------------------------
-------------------------------
-------------------------------
------2-------2------------
0-230---0 230--------------

2nd part of intro   distorted
Palm Muted
-------------------------------
-------------------------------
-------------------------------
-------------------------------
332----------------------------
332----------------------------
[ Tab from: http://www.guitartabs.cc/tabs/p/primer_55/big_fuck_you_btab.html ]
3rd part of intro,and chorus  distorted 
---------------------------
---------------------------
-------------------4-------
---------------------------
0-h30-2---0-23p--2---------
0-230-----0-23p------------

verses
-------------------------------
-------------------------------
-------------------------------
-------------------------------
--------2------------2---------
-------------------------------

then at the end when they go off

--------------------------------
--------------------------------
--------------------------------
--2h3-2h3-2h3-2h3---------------}play that alot and fast,
--2h3-2h3-2h3-2h3--------------- diferent rythms also so listen for change
--2h3-2h3-2h3-2h3---------------
Comments