Prime Circle - Same Goes For You Chords & Tabs

 

Same Goes For You Chords & Tabs

Prime Circle Chords & Tabs

Version: 1 Type: Tab 0 ratings
1 star 2 stars 3 stars 4 stars 5 stars
comments

Same Goes For You Tab

-================================-
 Prime Circle - Same Goes For You
-================================-

Artist		-	Prime Circle
Song		-	Same Goes For You
Tabbed By	-	Clayton Botha
e-Mail		-	theno69@hotmail.com
Tuning		-	Standard
Notes		-	Melodic song with a catchy chorus - listen 
			to it to get the rhythm and intro right, 
			I've done my best to make it as easily 
			understandable as possible! Enjoy!!!

 -=Intro/Verse=-
e||---0-----0-------0------0h2------2-----2--------2---------||
B||-----2---------2---2---------------2-----2----------------||
G||-------4-------------4---------------4--------------------||
D||------------------------------4-------------4-------------||
A||-0-----------0------------------------------------0-4-5p0-||
E||----------------------------------------------------------||

 -=Bridge=-
e||---------------------|-----------------------------||
B||---------------------|-----------------------------||
G||-7-7-7-7-7-6-6-6-7-7-|-7-7-7-7-7-6-6-6-7-7-7-7-7-7-||
D||-7-7-7-7-7-6-6-6-7-7-|-7-7-7-7-7-6-6-6-7-7-7-7-7-7-||
A||-5-5-5-5-5-4-4-4-5-5-|-5-5-5-5-5-4-4-4-5-5-5-5-5-5-||
E||---------------------|-----------------------------||

 -=Chorus-Part-1=-
e||----------------------------------------||
B||----------------------------------------||
G||----------9-9-9-9--7-7-7-7--7/9-9/11-11-||
D||-7-7-7-7--9-9-9-9--7-7-7-7--7/9-9/11-11-||
A||-7-7-7-7--7-7-7-7--5-5-5-5--5/7-7/-9--9-||
E||-5-5-5-5--------------------------------||

 -=Chorus-Part-2=-
e||-------------------------|----------------------------------||
B||-------------------------|----------------------------------||
G||-------------7-7-7-6-6-7-|-----------7-7-7--7-7-(6)-4-4-(6)-||
D||-7-6-7-7-6-7-7-7-7-7-7-7-|-7-6-7-6-7-7-7-7--7-7-(6)-4-4-(4)-||
A||-7-7-7-7-7-7-5-5-5-5-5-5-|-7-7-7-7-7-5-5-5--5-5-(4)-2-2-(4)-||
E||-5-5-5-5-5-5-------------|-5-5-5-5-5------------------------||

 -=Verse-2=- (Palm-Muted)
e||--------------------------------||
B||--------------------------------||
G||-------------------7-7------7-7-||(Guitar-1)
D||-7-7------7-7------7-7------7-7-||
A||-7-7------7-7------5-5------5-7-||
E||-5-5------5-5-------------------||

e||-----------------|-----------------||
B||-----------------|-----------------||
G||-----9-9-7-7-6-6-|-----9-9-7-7-6-6-||:(Guitar-2)
D||-----------------|-7-7-------------||: Each Part Twice
A||-7-7-------------|-----------------||
E||-----------------|-----------------||
[ Tab from: http://www.guitartabs.cc/tabs/p/prime_circle/same_goes_for_you_tab.html ]
 -=Interlude=- ("WoooOO00OOooohhhhh")
e||------------------------------------------------||
B||---6-5-------6-5-------6-5----------------------||
G||------------------------------------------------||: Palm-Muted
D||------------------------------------------------||
A||-0~~---0-5-4-----0-5-4-----0-5-4-0-4-5--5/SLIDE-||
E||------------------------------------------------||

 -=Last-Chorus=-
e||-----------------------------------------------||
B||-----------------------------------------------||
G||----------9-9-9-9--7-7-7-7---7-7-x-6-x-x-4-x---||
D||-7-7-7-7--9-9-9-9--7-7-7-7---7-7-x-6-x-x-4-x-7-||
A||-7-7-7-7--7-7-7-7--5-5-5-5---5-5-x-4-x-x-2-x-7-||
E||-5-5-5-5-------------------------------------5-||

 -=Lyrics=-

Verse-1
-=====-
 I search in corners search in rooms
 I search to find myself some answers
 To see these questions through
 Relearn what I knew

 Never mind this walk of shame
 Never mind it's all been done
 And I'm not really that bad

Birdge
-====-
 Cause I got things to do
 And I'm just telling you
 That I just will not stop
 No I'm not giving up

Chorus-Part-1
-===========-
	The same goes for you
	The same goes for me
	The same goes for dreams
	In all their varying ways
	Excuse me for what i say
Chorus-Part-2
-===========-
	For what i say
	Excuse me for what i say

Verse-2
-=====-
 I'm taking back what is mine
 And I'm gonna hold on tight this time
 Nothing's gonna pry me loose
 Hope that this is the truth

 Maybe it's wrong
 Maybe it's right
 Maybe this time I'm gonna come to life
 And I hope you feel it too
 And I cant tell you things to do

Bridge
-====-
 Cause I'm just telling you
 That I just will not stop
 No I'm not giving up

Chorus-Part-1
-===========-
	The same goes for you
	The same goes for me
	The same goes for dreams
	In all their varying ways
	Excuse me for what I say

	The same goes for you
	The same goes for me
	The same goes for dreams
	In all their varying ways
	Excuse me for what I say
Chorus-Part-2
-===========-
	For what I say
	Excuse me for what I say

Interlude
-=======-
 WoooOO00OOooohhhhh I'm not crazy

Bridge
-====-
 Cause I'm just telling you
 That I just will not stop
 No I'm not giving up

Chorus-Part-1
-===========-
	The same goes for you
	The same goes for me
	The same goes for dreams
	In all their varying ways
	Excuse me for what I say

	But the same goes for you
	The same goes for me
	The same goes for dreams
	Excuse me for what I say
Chorus-Part-2
-===========-
	For what I say
	Excuse me for what I say

-====================================================================-
 Thanks for viewing my tab! Any questions, comments or death treats??
 I'm open to all corrections so please e-mail me: theno69@hotmail.com
-====================================================================-
Comments