Primal Scream - Movin On Up Chords & Tabs

 

Movin On Up Chords & Tabs

Primal Scream Chords & Tabs

Version: 1 Type: Tab 0 ratings
1 star 2 stars 3 stars 4 stars 5 stars
comments

Movin On Up Tab

   
##################################################################################
# This file is the author's own work and represents their interpretation of the  #
# song. You may only use this file for private study, scholarship, or research.  #
##################################################################################

Artist: Primal Scream
Track: Movin' On Up
Album: Screamadelica

(Gillespie/Innes/Young)

Opening 'C' riff:

d - downstroke
u - upstroke

  d  d u d u d  d d  d d d
|-0--0-0-0-0-0--0-0--1-0-1--
|-1--1-1-1-1-1--1-1--1-1-1--
|-0--0-0-0-0-0--0-0--0-0-0--
|-2--2-2-2-2-2--2-2--2-2-2--
|---------------------------
|---------------------------



(Chorus)

I'm movin' on up now

   
|---------10---
|--12b14-------
|--------------
|--------------
|--------------
|--------------

Yeah, outta the darkness

   
|---------8----
|--10b12-------
|--------------
|--------------
|--------------
|--------------

My light shines on X3
(Verse)

(Chorus)

Solo:

(01:42)

Note: All notes with '*' above are played whilst still in the bend...
[ Tab from: http://www.guitartabs.cc/tabs/p/primal_scream/movin_on_up_tab.html ]
|---------*--*------------------------------------------------------------------------------
|--12b13--13-13r12--------------------------------------------------------------------------
|------------------10~~~-----10-10-10----10h12p10-----------10-10-10----10h12p10------------
|-------------------------13----------13----------10-10--13----------13----------10-10--10--
|-------------------------------------------------------------------------------------------
|-------------------------------------------------------------------------------------------

----------------------------------------------------------------------------------------
------------------------------------------------------------------------12b13-11--------
-------------------------------------------------10h12p10h12p10-------------------10----
-10--13-14-15--15p13-10-10-10----10-10--13-10-13----------------10-10----------------13-
------------------------------13--------------------------------------------------------
----------------------------------------------------------------------------------------

---------------------------------------------------------------------------*-----------------|
---------------------------------------------------------------------12b13-13--11-13-11-13~~-|
-10h12p10----------------------8----8--10b12-10b12-10b12-10b12-10b12-------------------------|
----------13-10-10--10-8-10-10---10----------------------------------------------------------|
---------------------------------------------------------------------------------------------|
---------------------------------------------------------------------------------------------|

Here are the two little riffs that start at 02:16:

|------------------------|
|-------11-11----11-13~~-|
|-11b12-------12---------|
|------------------------|
|------------------------|
|------------------------|

|------------------------|
|-------11-11------------|
|-11b12-------12---------|
|----------------13-10~~-|
|------------------------|
|------------------------|

R.Milwain (milwain@btinternet.com)
Comments