Primal Scream - Jailbird Chords & Tabs

 

Jailbird Chords & Tabs

Primal Scream Chords & Tabs

Version: 1 Type: Bass Tab 0 ratings
1 star 2 stars 3 stars 4 stars 5 stars
comments

Jailbird Bass Tab

   
-------------------------------------------------------------------------------
                             JAILBIRD - Primal Scream
-------------------------------------------------------------------------------
Tabbed by: SmokingTabs
E-mail: goudiedudi@hotmail.com

Tuning:Standard

        INTRO

G|---------------------------------------------------------------------------|
D|-----------------------------2-0-------------------------------------------|
A|---------------------------------3-0---------------------------------------|
E|-3-h5--5--3-h5-5-5--3-h5--5------------------------------------------------|

        VERSE
G|-----------------------------------------------------------------------------|
D|-----------------------------------------------------------------------------|
A|-------------------------------------5-5-5---5-------------------------------|
E|-5-5-5--5-5-0-3--5-5-5-0-5--5-3-3-3--------3---5--5-5---5--------------------|


        PRE CHORUS
G|--------------------------------------------------------------------------|
D|--------------------------------------------------------------7-----------|
A|---------------------------------2-2-2-2-2-2-2-2-5-5-5-5--7h9---9-7-------|
E|-2-2-2-2-2-2-2-2-5-5-5-5-5-5-5-5------------------------------------------|

        CHORUS
[ Tab from: http://www.guitartabs.cc/tabs/p/primal_scream/jailbird_btab.html ]
G|---------------------------------------------------------------------------|
D|---------------------------------------------------------------------------|
A|----------------------5-5-5-------------------------5----------------------|
E|-5-5-5--5-5-5--3-3-3-----------5-5-5--5-5-5--3-3-3----2-3-4---5-5-5--5-5-5-|

G|---------------------------------------------------------------------------|
D|---------------------------------------------------------------------------|
A|--------5--------------------------5---------------------------------------|
E|-3-3-3----2-3-4---5-5-5--5-5-5--3-----5------------------------------------|

        INSTRUMENTAL BREAK

G|---------------------------------------------------------------------------|
D|-----------------------------2-0------------------------------------2-0----|
A|---------------------------------3-0------------------------------------3-0|
E|-3-h5--5--3-h5-5-5--3-h5--5-------------3-h5--5--3-h5-5-5--3-h5--5---------|


G|---------------------------------------------------------------------------|
D|---------------------------------------------------------------------------|
A|--------5-5-5-----5-------------5-5-5----5---------------------------------|
E|-3-3-3---------3-----5----3-3-3-------3-----5------------------------------|

STRUCTURE:
DRUMS AND GUITAR X2
INTRO X2
VERSE X2
PRECHORUS
CHORUS
INTRO X2
VERSE X2
PRECHORUS
CHORUS
INSTRUMENTAL BREAK
GUITAR ALONE X2
INTRO X4
VERSE into the sunset….


| /  slide up
| \  slide down
| h  hammer-on
| p  pull-off
| ~  vibrato
| +  harmonic
| x  Mute note
===============================================================================
Comments