Primal Scream - Damaged Chords & Tabs

 

Damaged Chords & Tabs

Primal Scream Chords & Tabs

Version: 1 Type: Tab 0 ratings
1 star 2 stars 3 stars 4 stars 5 stars
comments

Damaged Tab

   
Damaged - Primal Scream

written by Gillespie/Innes/Young

Transcribed by Ben Smith (Tab Solos by Simon Gulak)
ben.ufton@pop3.hiway.co.uk

Verse 1:
D
Sweet summer days
When i was feeling so fine
Just you and me girl
Was a beautiful time
   G    Em7
Ah yeh
               D
Said I felt so happy, my my my

A
I was through with doubt and pain
        Bm                 G
All the love I felt hadn't been in vain
    D
Got damaged
      A
I got damaged
      G
I got damaged
                 D
I lost myself in you

Verse 2:
I'd wake up beside you
You'd hold me in your arms
Nothing and nobody's gonna do me
Any harm, ah yeh

Said I felt so happy
My, my, my

And the way I felt inside
Made me feel so glad to be alive
Got damaged
I got damaged
I got damaged
I lost myself in you
      G
Do do doo
          D
I'd never felt so happy
      G
Do do doo
          D
I'd never felt so happy
      Em7
Do do doo
          Bm      F#m
I'd never felt so happy
     G               A
I'll never feel that way again,

E-----------------------------------------------------------------------|
B-----------------------------------------------------------------------|
G-----------------------------------------------------------------------|
D----------------------------------7-7-9--------------------------------|
A-------------5-5---5---5-5-7-5-7/9-9---9-9-7/5-------5-5---5---5-5-7-5-|
E----------5h7-------5h7-----------------------7---5h7-------5h7--------|
no, no, no....

E-------------------------------------------------------10-12b-12b-10---|
B------------------------8-8---8---8-----------10--10-12-------------12-|
G---------7--9b-9b-7-----7-7---7---7-7-9-7-9/11--11---------------------|
D----7-7-9----------9-7h9-------7h9-------------------------------------|
A-7/9-9-----------------------------------------------------------------|
E-----------------------------------------------------------------------|


E------15-----15-----15-----15-----17-----17-----17-----17-----17------|
B-15h17--15h17--15h17--15h17--17h19--17h19--17h19--17h19--17h19--17h19-|
G----------------------------------------------------------------------|
D----------------------------------------------------------------------|
A----------------------------------------------------------------------|
E----------------------------------------------------------------------|

E17-----17-21-21-21/10-|
B--17h19---------------|
G----------------------|
D----------------------|
A----------------------|
E----------------------|Adlib G and D
[ Tab from: http://www.guitartabs.cc/tabs/p/primal_scream/damaged_tab.html ]
G
People can be precious
	   D
But they ain't for keeping
G
I got too possessive
          D
But souls ain't for stealing
G
You were my addiction
      D
I got strung out and crazy
G
Hit me like a fever
         D
When you left me baby
G             D
Stone, stone, stone in love with you, I was
G             D
Stone, stone, stone in love with you, I was
G             D
Stone, stone, stone in love with you, I was
G             D
Stone, stone, stone in love with you, I was

E-----------------------------------------------------------------------|
B-----------------------------------------------------------------------|
G-----------------------------------------------------------------------|
D----------------------------------7-7-9--------------------------------|
A-------------5-5---5---5-5-7-5-7/9-9---9-9-7/5-------5-5---5---5-5-7-5-|
E----------5h7-------5h7-----------------------7---5h7-------5h7--------|

           Stone,stone,stone in love with you,I was Stone,stone,stone in
E------------------------------------------------------------------------|
B------------------------------------------------------------------------|
G------------------------------------------------------------------------|
D----7-7-9-----------------------------------7-7-9-----------------------|
A-7/9-9---9-9-7/5-------5-5---5---5-5-7-5-7/9-9---9-9-7/5-------5-5---5--|
E----------------7---5h7-------5h7-----------------------7---5h7---------|

love with you, I was Stone,stone,stone in love with you,I was

E-----------------------------------------------------------------------|
B--------------------------------------------------------10--10-12------|
G-------------------7--9b-9b-7-----7-7---7---7-7-9-7-9/11--11-----11-11-|
D--------------7-7-9----------9-7h9-------7h9---------------------------|
A---5-5-7-5-7/9-9-------------------------------------------------------|
E5h7--------------------------------------------------------------------|
Stone,stone,stone in love with you,stone.....

E----------------------------------------10-12b-12b-10----------10-10--|
B------------------------------10--10--12-------------12---10h12-------|
G9/7-----7-7---7---7-7-9-7-9/11--11------------------------------------|
D---9-7h9-------7h9----------------------------------------------------|
A----------------------------------------------------------------------|
E----------------------------------------------------------------------|

E10-----10-10-12-10-12/14-17-14-17-19-14-14-12/10--------10-10--10------|etc
B--10h12-----------------------------------------12-10h12---------10h12-|
G-----------------------------------------------------------------------|
D-----------------------------------------------------------------------|
A-----------------------------------------------------------------------|
E-----------------------------------------------------------------------|

Continue to Fade...
Comments